  0
SECTION
  2
HEADER
  9
$ACADVER
  1
AC1004
  9
$INSBASE
 10
0.000000
 20
0.000000
  9
$EXTMIN
 10
0.000000
 20
0.000000
  9
$EXTMAX
 10
594.000000
 20
420.000000
  9
$LIMMIN
 10
0.000000
 20
0.000000
  9
$LIMMAX
 10
594.000000
 20
420.000000
  9
$VIEWCTR
 10
297.000000
 20
210.000000
  9
$VIEWSIZE
 40
420.000000
  9
$PEXTMIN
 10
0.000000
 20
0.000000
 30
0.000000
  9
$PEXTMAX
 10
297.000000
 20
210.000000
 30
0.000000
  9
$SNAPMODE
 70
     0
  9
$SNAPUNIT
 10
1.000000
 20
1.000000
  9
$SNAPBASE
 10
0.000000
 20
0.000000
  9
$SNAPANG
 50
0.000000
  9
$SNAPISOPAIR
 70
     0
  9
$SNAPSTYLE
 70
     0
  9
$GRIDMODE
 70
     0
  9
$GRIDUNIT
 10
0.000000
 20
0.000000
  9
$ORTHOMODE
 70
     0
  9
$REGENMODE
 70
     1
  9
$FILLMODE
 70
     1
  9
$QTEXTMODE
 70
     0
  9
$DRAGMODE
 70
     2
  9
$LTSCALE
 40
0.500000
  9
$OSMODE
 70
     0
  9
$ATTMODE
 70
     1
  9
$TEXTSIZE
 40
6.800000
  9
$TRACEWID
 40
0.050000
  9
$TEXTSTYLE
  7
STANDARD
  9
$CLAYER
  8
0
  9
$CELTYPE
  6
BYLAYER
  9
$CECOLOR
 62
   256
  9
$DIMSCALE
 40
1.000000
  9
$DIMASZ
 40
1.000000
  9
$DIMEXO
 40
0.000000
  9
$DIMDLI
 40
0.500000
  9
$DIMRND
 40
0.000000
  9
$DIMDLE
 40
0.000000
  9
$DIMEXE
 40
0.000000
  9
$DIMTP
 40
0.000000
  9
$DIMTM
 40
0.000000
  9
$DIMTXT
 40
4.000000
  9
$DIMCEN
 40
0.000000
  9
$DIMTSZ
 40
0.000000
  9
$DIMTOL
 70
     0
  9
$DIMLIM
 70
     0
  9
$DIMTIH
 70
     1
  9
$DIMTOH
 70
     1
  9
$DIMSE1
 70
     0
  9
$DIMSE2
 70
     0
  9
$DIMTAD
 70
     0
  9
$DIMZIN
 70
     0
  9
$DIMBLK
  1

  9
$DIMASO
 70
     0
  9
$DIMSHO
 70
     0
  9
$DIMPOST
  1

  9
$DIMAPOST
  1

  9
$DIMALT
 70
     0
  9
$DIMALTD
 70
     0
  9
$DIMALTF
 40
25.400000
  9
$DIMLFAC
 40
1.000000
  9
$DIMTOFL
 70
     0
  9
$DIMTVP
 40
0.000000
  9
$DIMTIX
 70
     0
  9
$DIMSOXD
 70
     0
  9
$DIMSAH
 70
     0
  9
$DIMBLKL
  1

  9
$DIMBLKR
  1

  9
$LUNITS
 70
     2
  9
$LUPREC
 70
     2
  9
$AXISMODE
 70
     0
  9
$AXISUNIT
 10
1.000000
 20
1.000000
  9
$SKETCHINC
 40
0.000000
  9
$FILLETRAD
 40
0.000000
  9
$AUNITS
 70
     1
  9
$AUPREC
 70
     2
  9
$MENU
  1
ACAD
  9
$ELEVATION
 40
0.000000
  9
$THICKNESS
 40
0.000000
  9
$VIEWDIR
 10
0.000000
 20
0.000000
 30
1.000000
  9
$LIMCHECK
 70
     1
  9
$BLIPMODE
 70
     1
  9
$CHAMFERA
 40
0.000000
  9
$CHAMFERB
 40
0.000000
  9
$FASTZOOM
 70
     1
  9
$SKPOLY
 70
     0
  9
$TDCREATE
 40
0.000000
  9
$TDUPDATE
 40
0.000000
  9
$TDINDWG
 40
0.000000
  9
$TDUSRTIMER
 40
0.000000
  9
$USRTIMER
 70
     1
  9
$ANGBASE
 50
0.000000
  9
$ANGDIR
 70
     0
  9
$PDMODE
 70
     0
  9
$PDSIZE
 40
0.000000
  9
$PLINEWID
 40
0.000000
  9
$COORDS
 70
     2
  9
$USERI1
 70
     0
  9
$USERI2
 70
     0
  9
$USERI3
 70
     0
  9
$USERI4
 70
     0
  9
$USERI5
 70
     0
  9
$USERR1
 40
0.000000
  9
$USERR2
 40
0.000000
  9
$USERR3
 40
0.000000
  9
$USERR4
 40
0.000000
  9
$USERR5
 40
0.000000
  0
ENDSEC
  0
SECTION
  2
TABLES
  0
TABLE
  2
LTYPE
 70
     5
  0
LTYPE
  2
CONTINUOUS
 70
    64
  3
Solid line
 72
    65
 73
     0
 40
0.0
  0
LTYPE
  2
HIDDEN
 70
    64
  3
------------------------
 72
    65
 73
     2
 40
12.6
 49
8.4
 49
-4.2
  0
LTYPE
  2
DOT
 70
    64
  3
････････････････････････
 72
    65
 73
     2
 40
8.0
 49
6.0
 49
-2.0
  0
LTYPE
  2
DASHDOT
 70
    64
  3
--･--･--･--･--･--･--･--
 72
    65
 73
     4
 40
50.5
 49
30.0
 49
-9.0
 49
2.5
 49
-9.0
  0
LTYPE
  2
DIVIDE
 70
    64
  3
--･･--･･--･･--･･--･･--
 72
    65
 73
     6
 40
58.0
 49
30.0
 49
-9.0
 49
2.5
 49
-5.0
 49
2.5
 49
-9.0
  0
LTYPE
  2
ACAD_ISO06W100
 70
    64
  3
____ ... ____ ... ____
 72
    65
 73
     8
 40
37.5
 49
24.0
 49
-3.0
 49
0.5
 49
-3.0
 49
0.5
 49
-3.0
 49
0.5
 49
-3.0
  0
LTYPE
  2
ACAD_ISO14W100
 70
    64
  3
__ . . . __ . . . __ . . . 
 72
    65
 73
     8
 40
25.5
 49
12.0
 49
-3.0
 49
0.5
 49
-3.0
 49
0.5
 49
-3.0
 49
0.5
 49
-3.0
  0
ENDTAB
  0
TABLE
  2
LAYER
 70
2
  0
LAYER
  2
20
 70
64
 62
250
  6
CONTINUOUS
  0
LAYER
  2
128
 70
64
 62
7
  6
CONTINUOUS
  0
ENDTAB
  0
TABLE
  2
STYLE
 70
     2
  0
STYLE
  2
STANDARD
 70
    64
 40
0.0
 41
1.0
 50
0.0
 71
     0
 42
0.2
  3
TXT
  4

  0
STYLE
  2
KANJI
 70
    64
 40
0.0
 41
1.0
 50
0.0
 71
     0
 42
0.2
  3
TXT
  4
BIGFONT
  0
ENDTAB
  0
TABLE
  2
VIEW
 70
     0
  0
ENDTAB
  0
ENDSEC
  0
SECTION
  2
BLOCKS
  0
ENDSEC
  0
SECTION
  2
ENTITIES
  0
LINE
  8
128
 62
7
  6
DASHDOT
 10
109.540996
 20
64.754717
 11
70.903963
 21
54.401955
  0
LINE
  8
128
 62
7
  6
DASHDOT
 10
109.540996
 20
64.754717
 11
70.903963
 21
75.107479
  0
LINE
  8
128
 62
7
  6
DASHDOT
 10
70.903963
 20
54.401955
 11
70.903963
 21
75.107479
  0
LINE
  8
128
 62
7
  6
DASHDOT
 10
109.540996
 20
64.754717
 11
37.522793
 21
64.754717
  0
LINE
  8
128
 62
7
  6
DASHDOT
 10
218.700596
 20
64.754717
 11
109.540996
 21
64.754717
  0
LINE
  8
128
 62
7
  6
DASHDOT
 10
163.443396
 20
192.741117
 11
163.443396
 21
35.713717
  0
ARC
  8
20
 62
250
  6
CONTINUOUS
 10
223.653196
 20
103.754717
 40
1.000000
 50
-90.000000
 51
-33.055700
  0
ARC
  8
20
 62
250
  6
CONTINUOUS
 10
223.653196
 20
109.754717
 40
1.000000
 50
33.055700
 51
90.000000
  0
ARC
  8
20
 62
250
  6
CONTINUOUS
 10
219.043396
 20
106.754717
 40
6.500000
 50
-33.055700
 51
33.055700
  0
ARC
  8
20
 62
250
  6
CONTINUOUS
 10
223.653196
 20
161.754717
 40
1.000000
 50
-90.000000
 51
-33.055700
  0
ARC
  8
20
 62
250
  6
CONTINUOUS
 10
223.653196
 20
167.754717
 40
1.000000
 50
33.055700
 51
90.000000
  0
ARC
  8
20
 62
250
  6
CONTINUOUS
 10
219.043396
 20
164.754717
 40
6.500000
 50
-33.055700
 51
33.055700
  0
ARC
  8
20
 62
250
  6
CONTINUOUS
 10
221.443396
 20
102.754717
 40
1.000000
 50
-90.000000
 51
0.000000
  0
ARC
  8
20
 62
250
  6
CONTINUOUS
 10
221.443396
 20
168.754717
 40
1.000000
 50
0.000000
 51
90.000000
  0
ARC
  8
20
 62
250
  6
CONTINUOUS
 10
136.994896
 20
109.754717
 40
1.000000
 50
0.000000
 51
90.000000
  0
ARC
  8
20
 62
250
  6
CONTINUOUS
 10
130.494896
 20
109.754717
 40
1.000000
 50
90.000000
 51
180.000000
  0
ARC
  8
20
 62
250
  6
CONTINUOUS
 10
185.743396
 20
175.254717
 40
5.000000
 50
-25.150700
 51
25.150700
  0
ARC
  8
20
 62
250
  6
CONTINUOUS
 10
190.443396
 20
170.754717
 40
1.000000
 50
180.000000
 51
-90.000000
  0
ARC
  8
20
 62
250
  6
CONTINUOUS
 10
140.443396
 20
159.754717
 40
1.000000
 50
0.000000
 51
90.000000
  0
ARC
  8
20
 62
250
  6
CONTINUOUS
 10
140.443396
 20
161.754717
 40
1.000000
 50
180.000000
 51
-90.000000
  0
ARC
  8
20
 62
250
  6
CONTINUOUS
 10
129.443396
 20
104.754717
 40
1.000000
 50
90.000000
 51
180.000000
  0
ARC
  8
20
 62
250
  6
CONTINUOUS
 10
138.443396
 20
108.754717
 40
3.000000
 50
-90.000000
 51
0.000000
  0
ARC
  8
20
 62
250
  6
CONTINUOUS
 10
142.443396
 20
43.254717
 40
1.000000
 50
-90.000000
 51
0.000000
  0
ARC
  8
20
 62
250
  6
CONTINUOUS
 10
145.443396
 20
43.754717
 40
2.000000
 50
90.000000
 51
180.000000
  0
ARC
  8
20
 62
250
  6
CONTINUOUS
 10
147.544396
 20
43.754717
 40
2.000000
 50
45.584700
 51
90.000000
  0
ARC
  8
20
 62
250
  6
CONTINUOUS
 10
152.443396
 20
48.754717
 40
5.000000
 50
-134.415300
 51
-90.000000
  0
ARC
  8
20
 62
250
  6
CONTINUOUS
 10
179.342396
 20
43.754717
 40
2.000000
 50
90.000000
 51
134.415300
  0
ARC
  8
20
 62
250
  6
CONTINUOUS
 10
180.065296
 20
43.754717
 40
2.000000
 50
50.000000
 51
90.000000
  0
ARC
  8
20
 62
250
  6
CONTINUOUS
 10
174.443396
 20
48.754717
 40
5.000000
 50
-90.000000
 51
-45.584700
  0
ARC
  8
20
 62
250
  6
CONTINUOUS
 10
187.512196
 20
49.254717
 40
7.000000
 50
-130.000000
 51
-90.000000
  0
ARC
  8
20
 62
250
  6
CONTINUOUS
 10
122.443396
 20
41.254717
 40
1.000000
 50
-90.000000
 51
0.000000
  0
ARC
  8
20
 62
250
  6
CONTINUOUS
 10
124.443396
 20
41.254717
 40
1.000000
 50
90.000000
 51
180.000000
  0
ARC
  8
20
 62
250
  6
CONTINUOUS
 10
204.443396
 20
41.254717
 40
1.000000
 50
180.000000
 51
-90.000000
  0
ARC
  8
20
 62
250
  6
CONTINUOUS
 10
202.443396
 20
41.254717
 40
1.000000
 50
0.000000
 51
90.000000
  0
ARC
  8
20
 62
250
  6
CONTINUOUS
 10
204.443396
 20
88.254717
 40
1.000000
 50
90.000000
 51
180.000000
  0
ARC
  8
20
 62
250
  6
CONTINUOUS
 10
202.443396
 20
88.254717
 40
1.000000
 50
-90.000000
 51
0.000000
  0
ARC
  8
20
 62
250
  6
CONTINUOUS
 10
196.443396
 20
88.254717
 40
1.000000
 50
180.000000
 51
-90.000000
  0
ARC
  8
20
 62
250
  6
CONTINUOUS
 10
196.443396
 20
94.254717
 40
1.000000
 50
90.000000
 51
180.000000
  0
ARC
  8
20
 62
250
  6
CONTINUOUS
 10
129.443396
 20
96.254717
 40
1.000000
 50
180.000000
 51
-90.000000
  0
ARC
  8
20
 62
250
  6
CONTINUOUS
 10
197.443396
 20
96.254717
 40
1.000000
 50
-90.000000
 51
0.000000
  0
ARC
  8
20
 62
250
  6
CONTINUOUS
 10
122.443396
 20
88.254717
 40
1.000000
 50
0.000000
 51
90.000000
  0
ARC
  8
20
 62
250
  6
CONTINUOUS
 10
124.443396
 20
88.254717
 40
1.000000
 50
180.000000
 51
-90.000000
  0
ARC
  8
20
 62
250
  6
CONTINUOUS
 10
130.443396
 20
88.254717
 40
1.000000
 50
-90.000000
 51
0.000000
  0
ARC
  8
20
 62
250
  6
CONTINUOUS
 10
130.443396
 20
94.254717
 40
1.000000
 50
0.000000
 51
90.000000
  0
LINE
  8
20
 62
250
  6
CONTINUOUS
 10
186.443396
 20
185.754717
 11
187.443396
 21
184.754717
  0
LINE
  8
20
 62
250
  6
CONTINUOUS
 10
140.443396
 20
185.754717
 11
139.443396
 21
184.754717
  0
LINE
  8
20
 62
250
  6
CONTINUOUS
 10
222.443396
 20
102.754717
 11
223.653196
 21
102.754717
  0
LINE
  8
20
 62
250
  6
CONTINUOUS
 10
222.443396
 20
110.754717
 11
223.653196
 21
110.754717
  0
LINE
  8
20
 62
250
  6
CONTINUOUS
 10
222.443396
 20
160.754717
 11
223.653196
 21
160.754717
  0
LINE
  8
20
 62
250
  6
CONTINUOUS
 10
222.443396
 20
168.754717
 11
223.653196
 21
168.754717
  0
LINE
  8
20
 62
250
  6
CONTINUOUS
 10
222.443396
 20
168.754717
 11
222.443396
 21
102.754717
  0
LINE
  8
20
 62
250
  6
CONTINUOUS
 10
220.443396
 20
169.754717
 11
220.443396
 21
101.754717
  0
LINE
  8
20
 62
250
  6
CONTINUOUS
 10
129.494896
 20
109.754717
 11
129.494896
 21
105.754717
  0
LINE
  8
20
 62
250
  6
CONTINUOUS
 10
137.994896
 20
109.754717
 11
137.994896
 21
105.754717
  0
LINE
  8
20
 62
250
  6
CONTINUOUS
 10
130.494896
 20
110.754717
 11
136.994896
 21
110.754717
  0
LINE
  8
20
 62
250
  6
CONTINUOUS
 10
160.943396
 20
101.254717
 11
128.443396
 21
101.254717
  0
LINE
  8
20
 62
250
  6
CONTINUOUS
 10
139.443396
 20
184.754717
 11
139.443396
 21
180.754717
  0
LINE
  8
20
 62
250
  6
CONTINUOUS
 10
187.443396
 20
184.754717
 11
187.443396
 21
180.754717
  0
LINE
  8
20
 62
250
  6
CONTINUOUS
 10
140.443396
 20
185.754717
 11
186.443396
 21
185.754717
  0
LINE
  8
20
 62
250
  6
CONTINUOUS
 10
128.443396
 20
101.754717
 11
128.443396
 21
101.254717
  0
LINE
  8
20
 62
250
  6
CONTINUOUS
 10
219.443396
 20
169.754717
 11
219.443396
 21
101.754717
  0
LINE
  8
20
 62
250
  6
CONTINUOUS
 10
139.443396
 20
180.754717
 11
139.443396
 21
161.754717
  0
LINE
  8
20
 62
250
  6
CONTINUOUS
 10
129.443396
 20
105.754717
 11
138.443396
 21
105.754717
  0
LINE
  8
20
 62
250
  6
CONTINUOUS
 10
141.443396
 20
159.754717
 11
141.443396
 21
108.754717
  0
LINE
  8
20
 62
250
  6
CONTINUOUS
 10
128.443396
 20
104.754717
 11
128.443396
 21
101.254717
  0
LINE
  8
20
 62
250
  6
CONTINUOUS
 10
128.443396
 20
101.254717
 11
160.943396
 21
101.254717
  0
LINE
  8
20
 62
250
  6
CONTINUOUS
 10
147.544396
 20
45.754717
 11
145.443396
 21
45.754717
  0
LINE
  8
20
 62
250
  6
CONTINUOUS
 10
183.012596
 20
43.892417
 11
181.350896
 21
45.286817
  0
LINE
  8
20
 62
250
  6
CONTINUOUS
 10
180.065296
 20
45.754717
 11
179.342396
 21
45.754717
  0
LINE
  8
20
 62
250
  6
CONTINUOUS
 10
174.443396
 20
43.754717
 11
152.443396
 21
43.754717
  0
LINE
  8
20
 62
250
  6
CONTINUOUS
 10
142.443396
 20
42.254717
 11
124.443396
 21
42.254717
  0
LINE
  8
20
 62
250
  6
CONTINUOUS
 10
143.443396
 20
43.754717
 11
143.443396
 21
43.254717
  0
LINE
  8
20
 62
250
  6
CONTINUOUS
 10
130.443396
 20
95.254717
 11
129.443396
 21
95.254717
  0
LINE
  8
20
 62
250
  6
CONTINUOUS
 10
130.443396
 20
87.254717
 11
124.443396
 21
87.254717
  0
LINE
  8
20
 62
250
  6
CONTINUOUS
 10
131.443396
 20
94.254717
 11
131.443396
 21
88.254717
  0
LINE
  8
20
 62
250
  6
CONTINUOUS
 10
197.443396
 20
95.254717
 11
196.443396
 21
95.254717
  0
LINE
  8
20
 62
250
  6
CONTINUOUS
 10
198.443396
 20
101.254717
 11
198.443396
 21
96.254717
  0
LINE
  8
20
 62
250
  6
CONTINUOUS
 10
128.443396
 20
101.254717
 11
128.443396
 21
96.254717
  0
LINE
  8
20
 62
250
  6
CONTINUOUS
 10
122.443396
 20
89.254717
 11
118.443396
 21
89.254717
  0
LINE
  8
20
 62
250
  6
CONTINUOUS
 10
122.443396
 20
40.254717
 11
118.443396
 21
40.254717
  0
LINE
  8
20
 62
250
  6
CONTINUOUS
 10
208.443396
 20
40.254717
 11
204.443396
 21
40.254717
  0
LINE
  8
20
 62
250
  6
CONTINUOUS
 10
208.443396
 20
89.254717
 11
204.443396
 21
89.254717
  0
LINE
  8
20
 62
250
  6
CONTINUOUS
 10
198.443396
 20
101.254717
 11
128.443396
 21
101.254717
  0
LINE
  8
20
 62
250
  6
CONTINUOUS
 10
202.443396
 20
42.254717
 11
187.512196
 21
42.254717
  0
LINE
  8
20
 62
250
  6
CONTINUOUS
 10
202.443396
 20
87.254717
 11
196.443396
 21
87.254717
  0
LINE
  8
20
 62
250
  6
CONTINUOUS
 10
118.443396
 20
89.254717
 11
118.443396
 21
40.254717
  0
LINE
  8
20
 62
250
  6
CONTINUOUS
 10
208.443396
 20
89.254717
 11
208.443396
 21
40.254717
  0
LINE
  8
20
 62
250
  6
CONTINUOUS
 10
189.443396
 20
180.754717
 11
189.443396
 21
170.754717
  0
ARC
  8
20
 62
250
  6
CONTINUOUS
 10
189.364196
 20
176.954717
 40
1.000000
 50
25.150700
 51
85.457417
  0
ARC
  8
20
 62
250
  6
CONTINUOUS
 10
189.364196
 20
173.554717
 40
1.000000
 50
-85.457417
 51
-25.150700
  0
LINE
  8
20
 62
250
  6
CONTINUOUS
 10
139.443396
 20
180.754717
 11
189.443396
 21
180.754717
  0
LINE
  8
20
 62
250
  6
CONTINUOUS
 10
187.443396
 20
184.754717
 11
139.443396
 21
184.754717
  0
LINE
  8
20
 62
250
  6
CONTINUOUS
 10
139.443396
 20
169.754717
 11
221.443396
 21
169.754717
  0
LINE
  8
20
 62
250
  6
CONTINUOUS
 10
128.443396
 20
101.754717
 11
221.443396
 21
101.754717
  0
LINE
  8
20
 62
250
  6
CONTINUOUS
 10
195.443396
 20
94.254717
 11
195.443396
 21
86.599349
  0
LINE
  8
20
 62
250
  6
CONTINUOUS
 10
146.766449
 20
45.754717
 11
195.443396
 21
86.599349
  0
LINE
  8
20
 62
250
  6
CONTINUOUS
 10
163.443396
 20
169.754717
 11
163.443396
 21
101.754717
  0
ARC
  8
20
 62
250
  6
CONTINUOUS
 10
223.653168
 20
291.396226
 40
1.000000
 50
-90.000000
 51
-33.055731
  0
ARC
  8
20
 62
250
  6
CONTINUOUS
 10
223.653168
 20
297.396226
 40
1.000000
 50
33.055731
 51
90.000000
  0
ARC
  8
20
 62
250
  6
CONTINUOUS
 10
219.043396
 20
294.396226
 40
6.500000
 50
-33.055731
 51
33.055731
  0
LINE
  8
20
 62
250
  6
CONTINUOUS
 10
222.443396
 20
290.396226
 11
223.653168
 21
290.396226
  0
LINE
  8
20
 62
250
  6
CONTINUOUS
 10
222.443396
 20
298.396226
 11
223.653168
 21
298.396226
  0
ARC
  8
20
 62
250
  6
CONTINUOUS
 10
223.653168
 20
329.396226
 40
1.000000
 50
-90.000000
 51
-33.055731
  0
ARC
  8
20
 62
250
  6
CONTINUOUS
 10
223.653168
 20
335.396226
 40
1.000000
 50
33.055731
 51
90.000000
  0
LINE
  8
20
 62
250
  6
CONTINUOUS
 10
222.443396
 20
328.396226
 11
223.653168
 21
328.396226
  0
LINE
  8
20
 62
250
  6
CONTINUOUS
 10
222.443396
 20
336.396226
 11
223.653168
 21
336.396226
  0
ARC
  8
20
 62
250
  6
CONTINUOUS
 10
219.043396
 20
332.396226
 40
6.500000
 50
-33.055731
 51
33.055731
  0
LINE
  8
20
 62
250
  6
CONTINUOUS
 10
191.141881
 20
343.094711
 11
191.443396
 21
343.616951
  0
LINE
  8
20
 62
250
  6
CONTINUOUS
 10
191.443396
 20
342.572472
 11
191.141881
 21
343.094711
  0
LINE
  8
20
 62
250
  6
CONTINUOUS
 10
192.141881
 20
281.965691
 11
194.141881
 21
281.965691
  0
LINE
  8
20
 62
250
  6
CONTINUOUS
 10
194.141881
 20
281.965691
 11
195.141881
 21
283.697742
  0
LINE
  8
20
 62
250
  6
CONTINUOUS
 10
195.141881
 20
283.697742
 11
194.141881
 21
285.429792
  0
LINE
  8
20
 62
250
  6
CONTINUOUS
 10
194.141881
 20
285.429792
 11
192.141881
 21
285.429792
  0
LINE
  8
20
 62
250
  6
CONTINUOUS
 10
192.141881
 20
285.429792
 11
191.141881
 21
283.697742
  0
LINE
  8
20
 62
250
  6
CONTINUOUS
 10
191.141881
 20
283.697742
 11
192.141881
 21
281.965691
  0
CIRCLE
  8
20
 62
250
  6
CONTINUOUS
 10
193.141881
 20
283.697742
 40
4.250000
  0
ARC
  8
20
 62
250
  6
CONTINUOUS
 10
193.141881
 20
343.094711
 40
4.250000
 50
113.555893
 51
-113.555893
  0
LINE
  8
20
 62
250
  6
CONTINUOUS
 10
132.744911
 20
285.429792
 11
134.744911
 21
285.429792
  0
LINE
  8
20
 62
250
  6
CONTINUOUS
 10
134.744911
 20
285.429792
 11
135.744911
 21
283.697742
  0
LINE
  8
20
 62
250
  6
CONTINUOUS
 10
135.744911
 20
283.697742
 11
134.744911
 21
281.965691
  0
LINE
  8
20
 62
250
  6
CONTINUOUS
 10
134.744911
 20
281.965691
 11
132.744911
 21
281.965691
  0
LINE
  8
20
 62
250
  6
CONTINUOUS
 10
132.744911
 20
281.965691
 11
131.744911
 21
283.697742
  0
LINE
  8
20
 62
250
  6
CONTINUOUS
 10
131.744911
 20
283.697742
 11
132.744911
 21
285.429792
  0
CIRCLE
  8
20
 62
250
  6
CONTINUOUS
 10
133.744911
 20
283.697742
 40
4.250000
  0
LINE
  8
20
 62
250
  6
CONTINUOUS
 10
134.744911
 20
344.826762
 11
132.744911
 21
344.826762
  0
LINE
  8
20
 62
250
  6
CONTINUOUS
 10
132.744911
 20
344.826762
 11
131.744911
 21
343.094711
  0
LINE
  8
20
 62
250
  6
CONTINUOUS
 10
131.744911
 20
343.094711
 11
132.744911
 21
341.362660
  0
LINE
  8
20
 62
250
  6
CONTINUOUS
 10
132.744911
 20
341.362660
 11
134.744911
 21
341.362660
  0
LINE
  8
20
 62
250
  6
CONTINUOUS
 10
134.744911
 20
341.362660
 11
135.744911
 21
343.094711
  0
LINE
  8
20
 62
250
  6
CONTINUOUS
 10
135.744911
 20
343.094711
 11
134.744911
 21
344.826762
  0
CIRCLE
  8
20
 62
250
  6
CONTINUOUS
 10
133.744911
 20
343.094711
 40
4.250000
  0
LINE
  8
20
 62
250
  6
CONTINUOUS
 10
186.804689
 20
307.896226
 11
189.443396
 21
307.896226
  0
LINE
  8
20
 62
250
  6
CONTINUOUS
 10
189.443396
 20
307.896226
 11
189.443396
 21
313.396226
  0
ARC
  8
20
 62
250
  6
CONTINUOUS
 10
193.443396
 20
283.396226
 40
5.000000
 50
-90.000000
 51
0.000000
  0
LINE
  8
20
 62
250
  6
CONTINUOUS
 10
198.443396
 20
289.396226
 11
198.443396
 21
283.396226
  0
LINE
  8
20
 62
250
  6
CONTINUOUS
 10
163.443396
 20
289.396226
 11
222.443396
 21
289.396226
  0
LINE
  8
20
 62
250
  6
CONTINUOUS
 10
219.443396
 20
289.396226
 11
219.443396
 21
313.396226
  0
LINE
  8
20
 62
250
  6
CONTINUOUS
 10
222.443396
 20
289.396226
 11
222.443396
 21
313.396226
  0
LINE
  8
20
 62
250
  6
CONTINUOUS
 10
220.443396
 20
289.396226
 11
220.443396
 21
313.396226
  0
ARC
  8
20
 62
250
  6
CONTINUOUS
 10
133.443396
 20
283.396226
 40
5.000000
 50
180.000000
 51
-90.000000
  0
LINE
  8
20
 62
250
  6
CONTINUOUS
 10
128.443396
 20
298.396226
 11
123.443396
 21
298.396226
  0
LINE
  8
20
 62
250
  6
CONTINUOUS
 10
133.443396
 20
278.396226
 11
193.443396
 21
278.396226
  0
LINE
  8
20
 62
250
  6
CONTINUOUS
 10
128.443396
 20
313.396226
 11
128.443396
 21
283.396226
  0
LINE
  8
20
 62
250
  6
CONTINUOUS
 10
123.443396
 20
295.024856
 11
123.443396
 21
313.396226
  0
LINE
  8
20
 62
250
  6
CONTINUOUS
 10
122.443396
 20
294.024856
 11
118.443396
 21
294.024856
  0
LINE
  8
20
 62
250
  6
CONTINUOUS
 10
118.443396
 20
290.396226
 11
118.443396
 21
313.396226
  0
ARC
  8
20
 62
250
  6
CONTINUOUS
 10
122.443396
 20
295.024856
 40
1.000000
 50
-90.000000
 51
0.000000
  0
LINE
  8
20
 62
250
  6
CONTINUOUS
 10
128.443396
 20
290.396226
 11
118.443396
 21
290.396226
  0
LINE
  8
20
 62
250
  6
CONTINUOUS
 10
222.443396
 20
337.396226
 11
222.443396
 21
313.396226
  0
LINE
  8
20
 62
250
  6
CONTINUOUS
 10
220.443396
 20
337.396226
 11
220.443396
 21
313.396226
  0
CIRCLE
  8
20
 62
250
  6
CONTINUOUS
 10
163.443396
 20
313.396226
 40
23.000000
  0
LINE
  8
20
 62
250
  6
CONTINUOUS
 10
189.443396
 20
318.896226
 11
189.443396
 21
313.396226
  0
LINE
  8
20
 62
250
  6
CONTINUOUS
 10
186.804689
 20
318.896226
 11
189.443396
 21
318.896226
  0
LINE
  8
20
 62
250
  6
CONTINUOUS
 10
191.443396
 20
350.396226
 11
219.443396
 21
350.396226
  0
LINE
  8
20
 62
250
  6
CONTINUOUS
 10
191.443396
 20
337.396226
 11
191.443396
 21
350.396226
  0
LINE
  8
20
 62
250
  6
CONTINUOUS
 10
219.443396
 20
350.396226
 11
219.443396
 21
313.396226
  0
LINE
  8
20
 62
250
  6
CONTINUOUS
 10
163.443396
 20
337.396226
 11
222.443396
 21
337.396226
  0
CIRCLE
  8
20
 62
250
  6
CONTINUOUS
 10
163.443396
 20
313.396226
 40
24.000000
  0
LINE
  8
20
 62
250
  6
CONTINUOUS
 10
118.443396
 20
336.396226
 11
118.443396
 21
313.396226
  0
ARC
  8
20
 62
250
  6
CONTINUOUS
 10
122.443396
 20
331.767597
 40
1.000000
 50
0.000000
 51
90.000000
  0
LINE
  8
20
 62
250
  6
CONTINUOUS
 10
128.443396
 20
328.396226
 11
123.443396
 21
328.396226
  0
LINE
  8
20
 62
250
  6
CONTINUOUS
 10
123.443396
 20
331.767597
 11
123.443396
 21
313.396226
  0
LINE
  8
20
 62
250
  6
CONTINUOUS
 10
128.443396
 20
336.396226
 11
118.443396
 21
336.396226
  0
LINE
  8
20
 62
250
  6
CONTINUOUS
 10
122.443396
 20
332.767597
 11
118.443396
 21
332.767597
  0
ARC
  8
20
 62
250
  6
CONTINUOUS
 10
133.443396
 20
343.396226
 40
5.000000
 50
90.000000
 51
180.000000
  0
LINE
  8
20
 62
250
  6
CONTINUOUS
 10
133.443396
 20
348.396226
 11
191.443396
 21
348.396226
  0
LINE
  8
20
 62
250
  6
CONTINUOUS
 10
128.443396
 20
313.396226
 11
128.443396
 21
343.396226
  0
LINE
  8
128
 62
7
  6
DASHDOT
 10
115.443396
 20
313.396226
 11
225.443396
 21
313.396226
  0
LINE
  8
128
 62
7
  6
DASHDOT
 10
163.443396
 20
351.396226
 11
163.443396
 21
275.396226
  0
LINE
  8
128
 62
7
  6
DASHDOT
 10
374.738993
 20
183.426417
 11
374.738993
 21
34.608917
  0
LINE
  8
128
 62
7
  6
DASHDOT
 10
327.546593
 20
64.754717
 11
416.200993
 21
64.754717
  0
LINE
  8
20
 62
250
  6
CONTINUOUS
 10
392.355793
 20
82.616317
 11
390.935193
 21
83.141417
  0
LINE
  8
20
 62
250
  6
CONTINUOUS
 10
393.754493
 20
82.036317
 11
392.355793
 21
82.616317
  0
LINE
  8
20
 62
250
  6
CONTINUOUS
 10
395.128193
 20
81.398617
 11
393.754493
 21
82.036317
  0
LINE
  8
20
 62
250
  6
CONTINUOUS
 10
396.472193
 20
80.700517
 11
395.128193
 21
81.398617
  0
LINE
  8
20
 62
250
  6
CONTINUOUS
 10
397.780893
 20
79.939117
 11
396.472193
 21
80.700517
  0
LINE
  8
20
 62
250
  6
CONTINUOUS
 10
399.047793
 20
79.111017
 11
397.780893
 21
79.939117
  0
LINE
  8
20
 62
250
  6
CONTINUOUS
 10
400.266293
 20
78.212017
 11
399.047793
 21
79.111017
  0
LINE
  8
20
 62
250
  6
CONTINUOUS
 10
401.426193
 20
77.239017
 11
400.266293
 21
78.212017
  0
LINE
  8
20
 62
250
  6
CONTINUOUS
 10
402.515793
 20
76.188717
 11
401.426193
 21
77.239017
  0
LINE
  8
20
 62
250
  6
CONTINUOUS
 10
403.521993
 20
75.057517
 11
402.515793
 21
76.188717
  0
LINE
  8
20
 62
250
  6
CONTINUOUS
 10
404.427593
 20
73.844817
 11
403.521993
 21
75.057517
  0
LINE
  8
20
 62
250
  6
CONTINUOUS
 10
405.213593
 20
72.551117
 11
404.427593
 21
73.844817
  0
LINE
  8
20
 62
250
  6
CONTINUOUS
 10
405.858193
 20
71.181917
 11
405.213593
 21
72.551117
  0
LINE
  8
20
 62
250
  6
CONTINUOUS
 10
406.339493
 20
69.747717
 11
405.858193
 21
71.181917
  0
LINE
  8
20
 62
250
  6
CONTINUOUS
 10
406.637893
 20
68.264217
 11
406.339493
 21
69.747717
  0
LINE
  8
20
 62
250
  6
CONTINUOUS
 10
406.738993
 20
66.754717
 11
406.637893
 21
68.264217
  0
LINE
  8
20
 62
250
  6
CONTINUOUS
 10
342.839993
 20
68.263117
 11
342.738993
 21
66.754717
  0
LINE
  8
20
 62
250
  6
CONTINUOUS
 10
343.138593
 20
69.747617
 11
342.839993
 21
68.263117
  0
LINE
  8
20
 62
250
  6
CONTINUOUS
 10
343.620193
 20
71.182717
 11
343.138593
 21
69.747617
  0
LINE
  8
20
 62
250
  6
CONTINUOUS
 10
344.265193
 20
72.552417
 11
343.620193
 21
71.182717
  0
LINE
  8
20
 62
250
  6
CONTINUOUS
 10
345.051593
 20
73.846317
 11
344.265193
 21
72.552417
  0
LINE
  8
20
 62
250
  6
CONTINUOUS
 10
345.957793
 20
75.059517
 11
345.051593
 21
73.846317
  0
LINE
  8
20
 62
250
  6
CONTINUOUS
 10
346.964493
 20
76.190917
 11
345.957793
 21
75.059517
  0
LINE
  8
20
 62
250
  6
CONTINUOUS
 10
348.054993
 20
77.241817
 11
346.964493
 21
76.190917
  0
LINE
  8
20
 62
250
  6
CONTINUOUS
 10
349.215493
 20
78.215017
 11
348.054993
 21
77.241817
  0
LINE
  8
20
 62
250
  6
CONTINUOUS
 10
350.434393
 20
79.113917
 11
349.215493
 21
78.215017
  0
LINE
  8
20
 62
250
  6
CONTINUOUS
 10
351.702393
 20
79.942317
 11
350.434393
 21
79.113917
  0
LINE
  8
20
 62
250
  6
CONTINUOUS
 10
353.011693
 20
80.703717
 11
351.702393
 21
79.942317
  0
LINE
  8
20
 62
250
  6
CONTINUOUS
 10
354.355893
 20
81.401517
 11
353.011693
 21
80.703717
  0
LINE
  8
20
 62
250
  6
CONTINUOUS
 10
355.729793
 20
82.039017
 11
354.355893
 21
81.401517
  0
LINE
  8
20
 62
250
  6
CONTINUOUS
 10
357.128993
 20
82.618917
 11
355.729793
 21
82.039017
  0
LINE
  8
20
 62
250
  6
CONTINUOUS
 10
358.549793
 20
83.143817
 11
357.128993
 21
82.618917
  0
LINE
  8
20
 62
250
  6
CONTINUOUS
 10
357.122293
 20
46.893117
 11
358.542893
 21
46.368017
  0
LINE
  8
20
 62
250
  6
CONTINUOUS
 10
355.723593
 20
47.473117
 11
357.122293
 21
46.893117
  0
LINE
  8
20
 62
250
  6
CONTINUOUS
 10
354.349893
 20
48.110817
 11
355.723593
 21
47.473117
  0
LINE
  8
20
 62
250
  6
CONTINUOUS
 10
353.005893
 20
48.808917
 11
354.349893
 21
48.110817
  0
LINE
  8
20
 62
250
  6
CONTINUOUS
 10
351.697193
 20
49.570317
 11
353.005893
 21
48.808917
  0
LINE
  8
20
 62
250
  6
CONTINUOUS
 10
350.430293
 20
50.398417
 11
351.697193
 21
49.570317
  0
LINE
  8
20
 62
250
  6
CONTINUOUS
 10
349.211793
 20
51.297417
 11
350.430293
 21
50.398417
  0
LINE
  8
20
 62
250
  6
CONTINUOUS
 10
348.051893
 20
52.270417
 11
349.211793
 21
51.297417
  0
LINE
  8
20
 62
250
  6
CONTINUOUS
 10
346.962293
 20
53.320717
 11
348.051893
 21
52.270417
  0
LINE
  8
20
 62
250
  6
CONTINUOUS
 10
345.956093
 20
54.451917
 11
346.962293
 21
53.320717
  0
LINE
  8
20
 62
250
  6
CONTINUOUS
 10
345.050493
 20
55.664617
 11
345.956093
 21
54.451917
  0
LINE
  8
20
 62
250
  6
CONTINUOUS
 10
344.264493
 20
56.958317
 11
345.050493
 21
55.664617
  0
LINE
  8
20
 62
250
  6
CONTINUOUS
 10
343.619893
 20
58.327517
 11
344.264493
 21
56.958317
  0
LINE
  8
20
 62
250
  6
CONTINUOUS
 10
343.138593
 20
59.761717
 11
343.619893
 21
58.327517
  0
LINE
  8
20
 62
250
  6
CONTINUOUS
 10
342.840193
 20
61.245217
 11
343.138593
 21
59.761717
  0
LINE
  8
20
 62
250
  6
CONTINUOUS
 10
342.738993
 20
62.754717
 11
342.840193
 21
61.245217
  0
LINE
  8
20
 62
250
  6
CONTINUOUS
 10
406.638093
 20
61.246317
 11
406.738993
 21
62.754717
  0
LINE
  8
20
 62
250
  6
CONTINUOUS
 10
406.339493
 20
59.761817
 11
406.638093
 21
61.246317
  0
LINE
  8
20
 62
250
  6
CONTINUOUS
 10
405.857893
 20
58.326717
 11
406.339493
 21
59.761817
  0
LINE
  8
20
 62
250
  6
CONTINUOUS
 10
405.212893
 20
56.957017
 11
405.857893
 21
58.326717
  0
LINE
  8
20
 62
250
  6
CONTINUOUS
 10
404.426493
 20
55.663117
 11
405.212893
 21
56.957017
  0
LINE
  8
20
 62
250
  6
CONTINUOUS
 10
403.520293
 20
54.449917
 11
404.426493
 21
55.663117
  0
LINE
  8
20
 62
250
  6
CONTINUOUS
 10
402.513593
 20
53.318517
 11
403.520293
 21
54.449917
  0
LINE
  8
20
 62
250
  6
CONTINUOUS
 10
401.423093
 20
52.267617
 11
402.513593
 21
53.318517
  0
LINE
  8
20
 62
250
  6
CONTINUOUS
 10
400.262593
 20
51.294417
 11
401.423093
 21
52.267617
  0
LINE
  8
20
 62
250
  6
CONTINUOUS
 10
399.043693
 20
50.395517
 11
400.262593
 21
51.294417
  0
LINE
  8
20
 62
250
  6
CONTINUOUS
 10
397.775693
 20
49.567117
 11
399.043693
 21
50.395517
  0
LINE
  8
20
 62
250
  6
CONTINUOUS
 10
396.466393
 20
48.805717
 11
397.775693
 21
49.567117
  0
LINE
  8
20
 62
250
  6
CONTINUOUS
 10
395.122193
 20
48.107917
 11
396.466393
 21
48.805717
  0
LINE
  8
20
 62
250
  6
CONTINUOUS
 10
393.748293
 20
47.470417
 11
395.122193
 21
48.107917
  0
LINE
  8
20
 62
250
  6
CONTINUOUS
 10
392.349093
 20
46.890517
 11
393.748293
 21
47.470417
  0
LINE
  8
20
 62
250
  6
CONTINUOUS
 10
390.928293
 20
46.365617
 11
392.349093
 21
46.890517
  0
ARC
  8
20
 62
250
  6
CONTINUOUS
 10
399.738993
 20
120.754717
 40
1.000000
 50
90.000000
 51
180.000000
  0
ARC
  8
20
 62
250
  6
CONTINUOUS
 10
399.738993
 20
150.754717
 40
1.000000
 50
180.000000
 51
-90.000000
  0
ARC
  8
20
 62
250
  6
CONTINUOUS
 10
401.187493
 20
109.754717
 40
1.000000
 50
90.000000
 51
180.000000
  0
ARC
  8
20
 62
250
  6
CONTINUOUS
 10
407.687493
 20
109.754717
 40
1.000000
 50
0.000000
 51
90.000000
  0
ARC
  8
20
 62
250
  6
CONTINUOUS
 10
348.290593
 20
109.754717
 40
1.000000
 50
0.000000
 51
90.000000
  0
ARC
  8
20
 62
250
  6
CONTINUOUS
 10
341.790593
 20
109.754717
 40
1.000000
 50
90.000000
 51
180.000000
  0
ARC
  8
20
 62
250
  6
CONTINUOUS
 10
401.738993
 20
108.754717
 40
3.000000
 50
180.000000
 51
-90.000000
  0
ARC
  8
20
 62
250
  6
CONTINUOUS
 10
347.738993
 20
108.754717
 40
3.000000
 50
-90.000000
 51
0.000000
  0
CIRCLE
  8
20
 62
250
  6
CONTINUOUS
 10
374.738993
 20
175.254717
 40
3.250000
  0
ARC
  8
20
 62
250
  6
CONTINUOUS
 10
374.738993
 20
175.254717
 40
5.500000
 50
0.000000
 51
180.000000
  0
ARC
  8
20
 62
250
  6
CONTINUOUS
 10
353.738993
 20
166.754717
 40
3.000000
 50
90.000000
 51
180.000000
  0
ARC
  8
20
 62
250
  6
CONTINUOUS
 10
395.738993
 20
166.754717
 40
3.000000
 50
0.000000
 51
90.000000
  0
ARC
  8
20
 62
250
  6
CONTINUOUS
 10
395.738993
 20
104.754717
 40
3.000000
 50
-90.000000
 51
0.000000
  0
ARC
  8
20
 62
250
  6
CONTINUOUS
 10
353.738993
 20
104.754717
 40
3.000000
 50
180.000000
 51
-90.000000
  0
ARC
  8
20
 62
250
  6
CONTINUOUS
 10
408.738993
 20
104.754717
 40
1.000000
 50
0.000000
 51
90.000000
  0
ARC
  8
20
 62
250
  6
CONTINUOUS
 10
340.738993
 20
104.754717
 40
1.000000
 50
90.000000
 51
180.000000
  0
CIRCLE
  8
20
 62
250
  6
CONTINUOUS
 10
374.738993
 20
64.754717
 40
13.216000
  0
CIRCLE
  8
20
 62
250
  6
CONTINUOUS
 10
374.738993
 20
64.754717
 40
12.016600
  0
ARC
  8
20
 62
250
  6
CONTINUOUS
 10
408.738993
 20
96.254717
 40
1.000000
 50
-90.000000
 51
0.000000
  0
ARC
  8
20
 62
250
  6
CONTINUOUS
 10
340.738993
 20
96.254717
 40
1.000000
 50
180.000000
 51
-90.000000
  0
ARC
  8
20
 62
250
  6
CONTINUOUS
 10
407.738993
 20
94.254717
 40
1.000000
 50
90.000000
 51
180.000000
  0
ARC
  8
20
 62
250
  6
CONTINUOUS
 10
341.738993
 20
94.254717
 40
1.000000
 50
0.000000
 51
90.000000
  0
ARC
  8
20
 62
250
  6
CONTINUOUS
 10
374.738993
 20
64.754717
 40
24.500000
 50
37.752000
 51
142.248000
  0
ARC
  8
20
 62
250
  6
CONTINUOUS
 10
374.738993
 20
64.754717
 40
24.500000
 50
-142.248000
 51
-37.752000
  0
LINE
  8
20
 62
250
  6
CONTINUOUS
 10
355.238993
 20
115.754717
 11
355.238993
 21
110.754717
  0
LINE
  8
20
 62
250
  6
CONTINUOUS
 10
394.238993
 20
115.754717
 11
394.238993
 21
110.754717
  0
LINE
  8
20
 62
250
  6
CONTINUOUS
 10
355.238993
 20
110.754717
 11
394.238993
 21
110.754717
  0
LINE
  8
20
 62
250
  6
CONTINUOUS
 10
355.238993
 20
115.754717
 11
394.238993
 21
115.754717
  0
LINE
  8
20
 62
250
  6
CONTINUOUS
 10
353.738993
 20
124.254717
 11
395.738993
 21
124.254717
  0
LINE
  8
20
 62
250
  6
CONTINUOUS
 10
395.738993
 20
153.754717
 11
395.738993
 21
124.254717
  0
LINE
  8
20
 62
250
  6
CONTINUOUS
 10
353.738993
 20
153.754717
 11
353.738993
 21
124.254717
  0
LINE
  8
20
 62
250
  6
CONTINUOUS
 10
360.738993
 20
156.254717
 11
388.738993
 21
156.254717
  0
LINE
  8
20
 62
250
  6
CONTINUOUS
 10
388.738993
 20
159.754717
 11
388.738993
 21
156.254717
  0
LINE
  8
20
 62
250
  6
CONTINUOUS
 10
360.738993
 20
159.754717
 11
360.738993
 21
156.254717
  0
LINE
  8
20
 62
250
  6
CONTINUOUS
 10
353.738993
 20
153.754717
 11
395.738993
 21
153.754717
  0
LINE
  8
20
 62
250
  6
CONTINUOUS
 10
360.738993
 20
159.754717
 11
388.738993
 21
159.754717
  0
LINE
  8
20
 62
250
  6
CONTINUOUS
 10
400.187493
 20
109.754717
 11
400.187493
 21
106.187117
  0
LINE
  8
20
 62
250
  6
CONTINUOUS
 10
408.687493
 20
109.754717
 11
408.687493
 21
105.754717
  0
LINE
  8
20
 62
250
  6
CONTINUOUS
 10
407.687493
 20
110.754717
 11
401.187493
 21
110.754717
  0
LINE
  8
20
 62
250
  6
CONTINUOUS
 10
340.790593
 20
109.754717
 11
340.790593
 21
105.754717
  0
LINE
  8
20
 62
250
  6
CONTINUOUS
 10
349.290593
 20
109.754717
 11
349.290593
 21
106.187117
  0
LINE
  8
20
 62
250
  6
CONTINUOUS
 10
341.790593
 20
110.754717
 11
348.290593
 21
110.754717
  0
LINE
  8
20
 62
250
  6
CONTINUOUS
 10
350.738993
 20
184.754717
 11
398.738993
 21
184.754717
  0
LINE
  8
20
 62
250
  6
CONTINUOUS
 10
397.738993
 20
185.754717
 11
398.738993
 21
184.754717
  0
LINE
  8
20
 62
250
  6
CONTINUOUS
 10
351.738993
 20
185.754717
 11
350.738993
 21
184.754717
  0
LINE
  8
20
 62
250
  6
CONTINUOUS
 10
351.738993
 20
185.754717
 11
397.738993
 21
185.754717
  0
LINE
  8
20
 62
250
  6
CONTINUOUS
 10
399.738993
 20
121.754717
 11
411.738993
 21
121.754717
  0
LINE
  8
20
 62
250
  6
CONTINUOUS
 10
399.738993
 20
149.754717
 11
411.738993
 21
149.754717
  0
LINE
  8
20
 62
250
  6
CONTINUOUS
 10
411.738993
 20
149.754717
 11
411.738993
 21
121.754717
  0
LINE
  8
20
 62
250
  6
CONTINUOUS
 10
369.238993
 20
175.254717
 11
369.238993
 21
169.754717
  0
LINE
  8
20
 62
250
  6
CONTINUOUS
 10
380.238993
 20
175.254717
 11
380.238993
 21
169.754717
  0
LINE
  8
20
 62
250
  6
CONTINUOUS
 10
401.738993
 20
105.754717
 11
408.738993
 21
105.754717
  0
LINE
  8
20
 62
250
  6
CONTINUOUS
 10
398.738993
 20
184.754717
 11
398.738993
 21
104.754717
  0
LINE
  8
20
 62
250
  6
CONTINUOUS
 10
350.738993
 20
184.754717
 11
350.738993
 21
104.754717
  0
LINE
  8
20
 62
250
  6
CONTINUOUS
 10
353.738993
 20
101.754717
 11
395.738993
 21
101.754717
  0
LINE
  8
20
 62
250
  6
CONTINUOUS
 10
353.738993
 20
169.754717
 11
395.738993
 21
169.754717
  0
LINE
  8
20
 62
250
  6
CONTINUOUS
 10
409.738993
 20
104.754717
 11
409.738993
 21
101.254717
  0
LINE
  8
20
 62
250
  6
CONTINUOUS
 10
339.738993
 20
104.754717
 11
339.738993
 21
101.254717
  0
LINE
  8
20
 62
250
  6
CONTINUOUS
 10
350.738993
 20
180.754717
 11
398.738993
 21
180.754717
  0
LINE
  8
20
 62
250
  6
CONTINUOUS
 10
340.738993
 20
105.754717
 11
347.738993
 21
105.754717
  0
LINE
  8
20
 62
250
  6
CONTINUOUS
 10
406.738993
 20
77.754717
 11
406.738993
 21
62.754717
  0
LINE
  8
20
 62
250
  6
CONTINUOUS
 10
406.738993
 20
91.754717
 11
406.238993
 21
91.754717
  0
LINE
  8
20
 62
250
  6
CONTINUOUS
 10
406.238993
 20
91.754717
 11
406.238993
 21
77.754717
  0
LINE
  8
20
 62
250
  6
CONTINUOUS
 10
406.738993
 20
77.754717
 11
406.238993
 21
77.754717
  0
LINE
  8
20
 62
250
  6
CONTINUOUS
 10
342.738993
 20
77.754717
 11
342.738993
 21
62.754717
  0
LINE
  8
20
 62
250
  6
CONTINUOUS
 10
343.238993
 20
91.754717
 11
343.238993
 21
77.754717
  0
LINE
  8
20
 62
250
  6
CONTINUOUS
 10
342.738993
 20
77.754717
 11
343.238993
 21
77.754717
  0
LINE
  8
20
 62
250
  6
CONTINUOUS
 10
342.738993
 20
91.754717
 11
343.238993
 21
91.754717
  0
LINE
  8
20
 62
250
  6
CONTINUOUS
 10
409.738993
 20
101.254717
 11
409.738993
 21
96.254717
  0
LINE
  8
20
 62
250
  6
CONTINUOUS
 10
339.738993
 20
101.254717
 11
339.738993
 21
96.254717
  0
LINE
  8
20
 62
250
  6
CONTINUOUS
 10
340.738993
 20
95.254717
 11
408.738993
 21
95.254717
  0
LINE
  8
20
 62
250
  6
CONTINUOUS
 10
406.738993
 20
94.254717
 11
406.738993
 21
91.754717
  0
LINE
  8
20
 62
250
  6
CONTINUOUS
 10
342.738993
 20
94.254717
 11
342.738993
 21
91.754717
  0
LINE
  8
20
 62
250
  6
CONTINUOUS
 10
394.110393
 20
49.754717
 11
397.738993
 21
49.754717
  0
LINE
  8
20
 62
250
  6
CONTINUOUS
 10
394.110393
 20
79.754717
 11
397.738993
 21
79.754717
  0
LINE
  8
20
 62
250
  6
CONTINUOUS
 10
351.738993
 20
49.754717
 11
355.367693
 21
49.754717
  0
LINE
  8
20
 62
250
  6
CONTINUOUS
 10
351.738993
 20
79.754717
 11
355.367693
 21
79.754717
  0
LINE
  8
20
 62
250
  6
CONTINUOUS
 10
351.738993
 20
79.754717
 11
351.738993
 21
49.754717
  0
LINE
  8
20
 62
250
  6
CONTINUOUS
 10
397.738993
 20
79.754717
 11
397.738993
 21
49.754717
  0
LINE
  8
20
 62
250
  6
CONTINUOUS
 10
339.738993
 20
101.254717
 11
409.590793
 21
101.254717
  0
ENDSEC
  0
EOF
