  0
SECTION
  2
HEADER
  9
$ACADVER
  1
AC1014
  9
$ACADMAINTVER
 70
     0
  9
$DWGCODEPAGE
  3
DOS932
  9
$INSBASE
 10
0.0
 20
0.0
 30
0.0
  9
$EXTMIN
 10
0.0
 20
0.0
 30
0.0
  9
$EXTMAX
 10
5940.0
 20
4200.0
 30
0.0
  9
$LIMMIN
 10
0.0
 20
0.0
  9
$LIMMAX
 10
5940.0
 20
4200.0
  9
$ORTHOMODE
 70
     0
  9
$REGENMODE
 70
     1
  9
$FILLMODE
 70
     1
  9
$QTEXTMODE
 70
     0
  9
$MIRRTEXT
 70
     1
  9
$DRAGMODE
 70
     2
  9
$LTSCALE
 40
5.0
  9
$OSMODE
 70
     0
  9
$ATTMODE
 70
     1
  9
$TEXTSIZE
 40
68.0
  9
$TRACEWID
 40
0.05
  9
$TEXTSTYLE
  7
STANDARD
  9
$CLAYER
  8
0
  9
$CELTYPE
  6
CONTINUOUS
  9
$CECOLOR
 62
   256
  9
$CELTSCALE
 40
1.0
  9
$DELOBJ
 70
     1
  9
$DISPSILH
 70
     0
  9
$DIMSCALE
 40
20.0
  9
$DIMASZ
 40
2.0
  9
$DIMEXO
 40
2.0
  9
$DIMDLI
 40
10.0
  9
$DIMRND
 40
0.0
  9
$DIMDLE
 40
0.0
  9
$DIMEXE
 40
2.0
  9
$DIMTP
 40
0.0
  9
$DIMTM
 40
0.0
  9
$DIMTXT
 40
4.0
  9
$DIMCEN
 40
0.09
  9
$DIMTSZ
 40
0.0
  9
$DIMTOL
 70
     0
  9
$DIMLIM
 70
     0
  9
$DIMTIH
 70
     0
  9
$DIMTOH
 70
     0
  9
$DIMSE1
 70
     0
  9
$DIMSE2
 70
     0
  9
$DIMTAD
 70
     3
  9
$DIMZIN
 70
     0
  9
$DIMBLK
  1

  9
$DIMASO
 70
     1
  9
$DIMSHO
 70
     1
  9
$DIMPOST
  1

  9
$DIMAPOST
  1

  9
$DIMALT
 70
     0
  9
$DIMALTD
 70
     2
  9
$DIMALTF
 40
25.4
  9
$DIMLFAC
 40
1.0
  9
$DIMTOFL
 70
     1
  9
$DIMTVP
 40
0.7
  9
$DIMTIX
 70
     0
  9
$DIMSOXD
 70
     0
  9
$DIMSAH
 70
     0
  9
$DIMBLK1
  1

  9
$DIMBLK2
  1

  9
$DIMSTYLE
  2
STANDARD
  9
$DIMCLRD
 70
     0
  9
$DIMCLRE
 70
     0
  9
$DIMCLRT
 70
     0
  9
$DIMTFAC
 40
0.5
  9
$DIMGAP
 40
0.0
  9
$DIMJUST
 70
     0
  9
$DIMSD1
 70
     0
  9
$DIMSD2
 70
     0
  9
$DIMTOLJ
 70
     1
  9
$DIMTZIN
 70
     0
  9
$DIMALTZ
 70
     0
  9
$DIMALTTZ
 70
     0
  9
$DIMFIT
 70
     3
  9
$DIMUPT
 70
     0
  9
$DIMUNIT
 70
     2
  9
$DIMDEC
 70
     2
  9
$DIMTDEC
 70
     4
  9
$DIMALTU
 70
     2
  9
$DIMALTTD
 70
     2
  9
$DIMTXSTY
  7
STANDARD
  9
$DIMAUNIT
 70
     0
  9
$LUNITS
 70
     2
  9
$LUPREC
 70
     4
  9
$SKETCHINC
 40
0.1
  9
$FILLETRAD
 40
0.0
  9
$AUNITS
 70
     0
  9
$AUPREC
 70
     0
  9
$MENU
  1
acad
  9
$ELEVATION
 40
0.0
  9
$PELEVATION
 40
0.0
  9
$THICKNESS
 40
0.0
  9
$LIMCHECK
 70
     0
  9
$BLIPMODE
 70
     1
  9
$CHAMFERA
 40
0.0
  9
$CHAMFERB
 40
0.0
  9
$CHAMFERC
 40
0.0
  9
$CHAMFERD
 40
0.0
  9
$SKPOLY
 70
     0
  9
$TDCREATE
 40
2453951.938495371
  9
$TDUPDATE
 40
2453951.938495371
  9
$TDINDWG
 40
0.0000000000
  9
$TDUSRTIMER
 40
0.0000000000
  9
$USRTIMER
 70
     1
  9
$ANGBASE
 50
0.0
  9
$ANGDIR
 70
     0
  9
$PDMODE
 70
     0
  9
$PDSIZE
 40
0.0
  9
$PLINEWID
 40
0.0
  9
$COORDS
 70
     0
  9
$SPLFRAME
 70
     0
  9
$SPLINETYPE
 70
     6
  9
$SPLINESEGS
 70
     8
  9
$ATTDIA
 70
     0
  9
$ATTREQ
 70
     1
  9
$HANDLING
 70
     1
  9
$HANDSEED
  5
642
  9
$SURFTAB1
 70
     6
  9
$SURFTAB2
 70
     6
  9
$SURFTYPE
 70
     6
  9
$SURFU
 70
     6
  9
$SURFV
 70
     6
  9
$UCSNAME
  2

  9
$UCSORG
 10
0.0
 20
0.0
 30
0.0
  9
$UCSXDIR
 10
1.0
 20
0.0
 30
0.0
  9
$UCSYDIR
 10
0.0
 20
1.0
 30
0.0
  9
$PUCSNAME
  2

  9
$PUCSORG
 10
0.0
 20
0.0
 30
0.0
  9
$PUCSXDIR
 10
1.0
 20
0.0
 30
0.0
  9
$PUCSYDIR
 10
0.0
 20
1.0
 30
0.0
  9
$USERI1
 70
     0
  9
$USERI2
 70
     0
  9
$USERI3
 70
     0
  9
$USERI4
 70
     0
  9
$USERI5
 70
     0
  9
$USERR1
 40
0.0
  9
$USERR2
 40
0.0
  9
$USERR3
 40
0.0
  9
$USERR4
 40
0.0
  9
$USERR5
 40
0.0
  9
$WORLDVIEW
 70
     1
  9
$SHADEDGE
 70
     3
  9
$SHADEDIF
 70
    70
  9
$TILEMODE
 70
     1
  9
$MAXACTVP
 70
    16
  9
$PINSBASE
 10
0.0
 20
0.0
 30
0.0
  9
$PLIMCHECK
 70
     0
  9
$PEXTMIN
 10
0.0
 20
0.0
 30
0.0
  9
$PEXTMAX
 10
297.0
 20
210.0
 30
0.0
  9
$PLIMMIN
 10
0.0
 20
0.0
  9
$PLIMMAX
 10
297.0
 20
210.0
  9
$UNITMODE
 70
     0
  9
$VISRETAIN
 70
     0
  9
$PLINEGEN
 70
     1
  9
$PSLTSCALE
 70
     0
  9
$TREEDEPTH
 70
  3020
  9
$PICKSTYLE
 70
     1
  9
$CMLSTYLE
  2
STANDARD
  9
$CMLJUST
 70
     0
  9
$CMLSCALE
 40
1.0
  9
$PROXYGRAPHICS
 70
     0
  9
$MEASUREMENT
 70
     0
  0
ENDSEC
  0
SECTION
  2
CLASSES
  0
CLASS
  1
LWPOLYLINE
  2
AcDbPolyline
  3
"AutoCAD"
 90
        0
280
     0
281
     1
  0
CLASS
  1
IMAGE
  2
AcDbRasterImage
  3
ISM
 90
      127
280
     0
281
     1
  0
CLASS
  1
OLE2FRAME
  2
AcDbOle2Frame
  3
""
 90
        0
280
     0
281
     1
  0
CLASS
  1
HATCH
  2
AcDbHatch
  3
"ACAD_SEDONA"
 90
        0
280
     0
281
     1
  0
CLASS
  1
DICTIONARYVAR
  2
AcDbDictionaryVar
  3
"AutoCAD"
 90
        0
280
     0
281
     0
  0
CLASS
  1
RASTERVARIABLES
  2
AcDbRasterVariables
  3
ISM
 90
        0
280
     0
281
     0
  0
CLASS
  1
IMAGEDEF
  2
AcDbRasterImageDef
  3
ISM
 90
        0
280
     0
281
     0
  0
CLASS
  1
IMAGEDEF_REACTOR
  2
AcDbRasterImageDefReactor
  3
ISM
 90
        1
280
     0
281
     0
  0
CLASS
  1
IDBUFFER
  2
AcDbIdBuffer
  3
"Acad"
 90
        0
280
     0
281
     0
  0
CLASS
  1
SPATIAL_FILTER
  2
AcDbSpatialFilter
  3
"Acad"
 90
        0
280
     0
281
     0
  0
CLASS
  1
XRECORD
  2
AcDbXrecord
  3
"<Built In>"
 90
        0
280
     0
281
     0
  0
CLASS
  1
SORTENTSTABLE
  2
AcDbSortentsTable
  3
"AutoCAD"
 90
        0
280
     0
281
     0
  0
CLASS
  1
LAYER_INDEX
  2
AcDbLayerIndex
  3
"Acad"
 90
        0
280
     0
281
     0
  0
CLASS
  1
SPATIAL_INDEX
  2
AcDbSpatialIndex
  3
"Acad"
 90
        0
280
     0
281
     0
  0
CLASS
  1
OBJECT_PTR
  2
CAseDLPNTableRecord
  3
"ASE-LPNTableRecord"
 90
        1
280
     0
281
     0
  0
CLASS
  1
LAYOUT
  2
AcDbLayout
  3
"AutoCAD 2000"
 90
        1
280
     0
281
     0
  0
CLASS
  1
PLOTSETTINGS
  2
AcDbPlotSettings
  3
"AutoCAD 2000"
 90
        1
280
     0
281
     0
  0
CLASS
  1
ACDBDICTIONARYWDFLT
  2
AcDbDictionaryWithDefault
  3
"AutoCAD 2000"
 90
        1
280
     0
281
     0
  0
CLASS
  1
ACDBPLACEHOLDER
  2
AcDbPlaceHolder
  3
"AutoCAD 2000"
 90
        1
280
     0
281
     0
  0
CLASS
  1
VBA_PROJECT
  2
AcDbVbaProject
  3
"acadvba"
 90
        1
280
     0
281
     0
  0
CLASS
  1
WIPEOUT
  2
AcDbWipeout
  3
WipeOut|AutoCAD Express Tool|expresstools@autodesk.com
 90
      127
280
     0
281
     1
  0
CLASS
  1
WIPEOUTVARIABLES
  2
AcDbWipeoutVariables
  3
WipeOut|AutoCAD Express Tool|expresstools@autodesk.com
 90
        0
280
     0
281
     0
  0
CLASS
  1
RTEXT
  2
RText
  3
RText|AutoCAD Express Tool|expresstools@autodesk.com
 90
        0
280
     0
281
     1
  0
CLASS
  1
ARCALIGNEDTEXT
  2
AcDbArcAlignedText
  3
ATEXT|AutoCAD Express Tool|expresstools@autodesk.com
 90
        0
280
     0
281
     1
  0
ENDSEC
  0
SECTION
  2
TABLES
  0
TABLE
  2
VPORT
  5
7
100
AcDbSymbolTable
 70
     1
  0
VPORT
  5
15
100
AcDbSymbolTableRecord
100
AcDbViewportTableRecord
  2
*ACTIVE
 70
     0
 10
0.0
 20
0.0
 11
1.0
 21
1.0
 12
6.591288
 22
4.579184
 13
0.0
 23
0.0
 14
1.0
 24
1.0
 15
0.0
 25
0.0
 16
0.0
 26
0.0
 36
1.0
 17
0.0
 27
0.0
 37
0.0
 40
9.158369
 41
0.688564
 42
50.0
 43
0.0
 44
0.0
 50
0.0
 51
0.0
 71
     0
 72
   100
 73
     1
 74
     1
 75
     0
 76
     0
 77
     0
 78
     0
  0
ENDTAB
  0
TABLE
  2
LTYPE
  5
4
100
AcDbSymbolTable
 70
     9
  0
LTYPE
  5
11
100
AcDbSymbolTableRecord
100
AcDbLinetypeTableRecord
  2
BYBLOCK
 70
    64
  3

 72
    65
 73
     0
 40
0.0
  0
LTYPE
  5
12
100
AcDbSymbolTableRecord
100
AcDbLinetypeTableRecord
  2
BYLAYER
 70
    64
  3

 72
    65
 73
     0
 40
0.0
  0
LTYPE
  5
13
100
AcDbSymbolTableRecord
100
AcDbLinetypeTableRecord
  2
CONTINUOUS
 70
    64
  3
Solid line
 72
    65
 73
     0
 40
0.0
  0
LTYPE
  5
1E
100
AcDbSymbolTableRecord
100
AcDbLinetypeTableRecord
  2
HIDDEN
 70
    64
  3
- - - - - - - - 
 72
    65
 73
     2
 40
12.6
 49
8.4
 74
     0
 49
-4.2
 74
     0
  0
LTYPE
  5
1F
100
AcDbSymbolTableRecord
100
AcDbLinetypeTableRecord
  2
DOT
 70
    64
  3
･ ･ ･ ･ ･ ･ ･ ･ 
 72
    65
 73
     2
 40
8.0
 49
6.0
 74
     0
 49
-2.0
 74
     0
  0
LTYPE
  5
20
100
AcDbSymbolTableRecord
100
AcDbLinetypeTableRecord
  2
CENTER
 70
    64
  3
- ･ - ･ - ･ - ･ 
 72
    65
 73
     4
 40
50.5
 49
30.0
 74
     0
 49
-9.0
 74
     0
 49
2.5
 74
     0
 49
-9.0
 74
     0
  0
LTYPE
  5
21
100
AcDbSymbolTableRecord
100
AcDbLinetypeTableRecord
  2
PHANTOM
 70
    64
  3
- ･･ - ･･ - ･･ - ･･ 
 72
    65
 73
     6
 40
58.0
 49
30.0
 74
     0
 49
-9.0
 74
     0
 49
2.5
 74
     0
 49
-5.0
 74
     0
 49
2.5
 74
     0
 49
-9.0
 74
     0
  0
LTYPE
  5
22
100
AcDbSymbolTableRecord
100
AcDbLinetypeTableRecord
  2
ACAD_ISO06W100
 70
    64
  3
____ ... ____ ... ____
 72
    65
 73
     8
 40
37.5
 49
24.0
 74
     0
 49
-3.0
 74
     0
 49
0.5
 74
     0
 49
-3.0
 74
     0
 49
0.5
 74
     0
 49
-3.0
 74
     0
 49
0.5
 74
     0
 49
-3.0
 74
     0
  0
LTYPE
  5
23
100
AcDbSymbolTableRecord
100
AcDbLinetypeTableRecord
  2
ACAD_ISO14W100
 70
    64
  3
__ . . . __ . . . __ . . . 
 72
    65
 73
     8
 40
25.5
 49
12.0
 74
     0
 49
-3.0
 74
     0
 49
0.5
 74
     0
 49
-3.0
 74
     0
 49
0.5
 74
     0
 49
-3.0
 74
     0
 49
0.5
 74
     0
 49
-3.0
 74
     0
  0
ENDTAB
  0
TABLE
  2
LAYER
  5
2
100
AcDbSymbolTable
 70
    23
  0
LAYER
  5
14
100
AcDbSymbolTableRecord
100
AcDbLayerTableRecord
  2
0
 70
     0
 62
     7
  6
CONTINUOUS
  0
LAYER
  5
24
100
AcDbSymbolTableRecord
100
AcDbLayerTableRecord
  2
1
 70
     0
 62
     7
  6
CONTINUOUS
  0
LAYER
  5
25
100
AcDbSymbolTableRecord
100
AcDbLayerTableRecord
  2
2
 70
     0
 62
     7
  6
CONTINUOUS
  0
LAYER
  5
26
100
AcDbSymbolTableRecord
100
AcDbLayerTableRecord
  2
3
 70
     0
 62
   214
  6
CONTINUOUS
  0
LAYER
  5
27
100
AcDbSymbolTableRecord
100
AcDbLayerTableRecord
  2
4
 70
     0
 62
    54
  6
CONTINUOUS
  0
LAYER
  5
28
100
AcDbSymbolTableRecord
100
AcDbLayerTableRecord
  2
5
 70
     0
 62
    94
  6
CONTINUOUS
  0
LAYER
  5
29
100
AcDbSymbolTableRecord
100
AcDbLayerTableRecord
  2
6
 70
     0
 62
    14
  6
CONTINUOUS
  0
LAYER
  5
2A
100
AcDbSymbolTableRecord
100
AcDbLayerTableRecord
  2
7
 70
     0
 62
     4
  6
CONTINUOUS
  0
LAYER
  5
2B
100
AcDbSymbolTableRecord
100
AcDbLayerTableRecord
  2
8
 70
     0
 62
     6
  6
CONTINUOUS
  0
LAYER
  5
2C
100
AcDbSymbolTableRecord
100
AcDbLayerTableRecord
  2
9
 70
     0
 62
     2
  6
CONTINUOUS
  0
LAYER
  5
2D
100
AcDbSymbolTableRecord
100
AcDbLayerTableRecord
  2
10
 70
     0
 62
     3
  6
CONTINUOUS
  0
LAYER
  5
2E
100
AcDbSymbolTableRecord
100
AcDbLayerTableRecord
  2
11
 70
     0
 62
   251
  6
CONTINUOUS
  0
LAYER
  5
2F
100
AcDbSymbolTableRecord
100
AcDbLayerTableRecord
  2
12
 70
     0
 62
   136
  6
CONTINUOUS
  0
LAYER
  5
30
100
AcDbSymbolTableRecord
100
AcDbLayerTableRecord
  2
13
 70
     0
 62
   216
  6
CONTINUOUS
  0
LAYER
  5
31
100
AcDbSymbolTableRecord
100
AcDbLayerTableRecord
  2
14
 70
     0
 62
    56
  6
CONTINUOUS
  0
LAYER
  5
32
100
AcDbSymbolTableRecord
100
AcDbLayerTableRecord
  2
15
 70
     0
 62
    96
  6
CONTINUOUS
  0
LAYER
  5
33
100
AcDbSymbolTableRecord
100
AcDbLayerTableRecord
  2
16
 70
     0
 62
    16
  6
CONTINUOUS
  0
LAYER
  5
34
100
AcDbSymbolTableRecord
100
AcDbLayerTableRecord
  2
17
 70
     0
 62
   132
  6
CONTINUOUS
  0
LAYER
  5
35
100
AcDbSymbolTableRecord
100
AcDbLayerTableRecord
  2
18
 70
     0
 62
   212
  6
CONTINUOUS
  0
LAYER
  5
36
100
AcDbSymbolTableRecord
100
AcDbLayerTableRecord
  2
19
 70
     0
 62
    52
  6
CONTINUOUS
  0
LAYER
  5
37
100
AcDbSymbolTableRecord
100
AcDbLayerTableRecord
  2
20
 70
     0
 62
   250
  6
CONTINUOUS
  0
LAYER
  5
38
100
AcDbSymbolTableRecord
100
AcDbLayerTableRecord
  2
21
 70
     0
 62
     7
  6
CONTINUOUS
  0
LAYER
  5
39
100
AcDbSymbolTableRecord
100
AcDbLayerTableRecord
  2
22
 70
     0
 62
     7
  6
CONTINUOUS
  0
ENDTAB
  0
TABLE
  2
STYLE
  5
3
100
AcDbSymbolTable
 70
     2
  0
STYLE
  5
17
100
AcDbSymbolTableRecord
100
AcDbTextStyleTableRecord
  2
STANDARD
 70
     0
 40
0.0
 41
1.0
 50
0.0
 71
     0
 42
0.0
  3
txt
  4
bigfont
  0
STYLE
  5
1D
100
AcDbSymbolTableRecord
100
AcDbTextStyleTableRecord
  2
T_STANDARD
 70
    68
 40
10.0
 41
1.0
 50
0.0
 71
     0
 42
10.0
  3
txt
  4
bigfont
  0
ENDTAB
  0
TABLE
  2
VIEW
  5
5
100
AcDbSymbolTable
 70
     0
  0
ENDTAB
  0
TABLE
  2
UCS
  5
6
100
AcDbSymbolTable
 70
     0
  0
ENDTAB
  0
TABLE
  2
APPID
  5
8
100
AcDbSymbolTable
 70
     1
  0
APPID
  5
16
100
AcDbSymbolTableRecord
100
AcDbRegAppTableRecord
  2
ACAD
 70
     0
  0
ENDTAB
  0
TABLE
  2
DIMSTYLE
  5
9
100
AcDbSymbolTable
 70
     1
  0
DIMSTYLE
105
18
100
AcDbSymbolTableRecord
100
AcDbDimStyleTableRecord
  2
STANDARD
 70
     0
  3

  4

  5

  6

  7

 40
1.0
 41
0.18
 42
0.0625
 43
0.38
 44
0.18
 45
0.0
 46
0.0
 47
0.0
 48
0.0
 71
     0
 72
     0
 73
     1
 74
     1
 75
     0
 76
     0
 77
     0
 78
     0
140
0.18
141
0.09
142
0.0
143
25.4
144
1.0
145
0.0
146
1.0
147
0.09
170
     0
171
     2
172
     0
173
     0
174
     0
175
     0
176
     0
177
     0
178
     0
270
     2
271
     4
272
     4
273
     2
274
     2
275
     0
280
     0
281
     0
282
     0
283
     1
284
     0
285
     0
286
     0
287
     0
288
     0
340
17
  0
ENDTAB
  0
TABLE
  2
BLOCK_RECORD
  5
1
100
AcDbSymbolTable
 70
     9
  0
BLOCK_RECORD
  5
A
100
AcDbSymbolTableRecord
100
AcDbBlockTableRecord
  2
*MODEL_SPACE
  0
BLOCK_RECORD
  5
B
100
AcDbSymbolTableRecord
100
AcDbBlockTableRecord
  2
*PAPER_SPACE
  0
BLOCK_RECORD
  5
3A
100
AcDbSymbolTableRecord
100
AcDbBlockTableRecord
  2
*G0
  0
BLOCK_RECORD
  5
51A
100
AcDbSymbolTableRecord
100
AcDbBlockTableRecord
  2
*G1
  0
BLOCK_RECORD
  5
526
100
AcDbSymbolTableRecord
100
AcDbBlockTableRecord
  2
*G2
  0
BLOCK_RECORD
  5
532
100
AcDbSymbolTableRecord
100
AcDbBlockTableRecord
  2
*G3
  0
BLOCK_RECORD
  5
53E
100
AcDbSymbolTableRecord
100
AcDbBlockTableRecord
  2
*G4
  0
BLOCK_RECORD
  5
54A
100
AcDbSymbolTableRecord
100
AcDbBlockTableRecord
  2
*G5
  0
BLOCK_RECORD
  5
556
100
AcDbSymbolTableRecord
100
AcDbBlockTableRecord
  2
*G6
  0
BLOCK_RECORD
  5
562
100
AcDbSymbolTableRecord
100
AcDbBlockTableRecord
  2
*G7
  0
BLOCK_RECORD
  5
56E
100
AcDbSymbolTableRecord
100
AcDbBlockTableRecord
  2
*G8
  0
ENDTAB
  0
ENDSEC
  0
SECTION
  2
BLOCKS
  0
BLOCK
  5
D
100
AcDbEntity
  8
0
100
AcDbBlockBegin
  2
*MODEL_SPACE
 70
     0
 10
0.0
 20
0.0
 30
0.0
  3
*MODEL_SPACE
  1

  0
ENDBLK
  5
E
100
AcDbEntity
  8
0
100
AcDbBlockEnd
  0
BLOCK
  5
F
100
AcDbEntity
 67
     1
  8
0
100
AcDbBlockBegin
  2
*PAPER_SPACE
 70
     0
 10
0.0
 20
0.0
 30
0.0
  3
*PAPER_SPACE
  1

  0
ENDBLK
  5
10
100
AcDbEntity
 67
     1
  8
0
100
AcDbBlockEnd
  0
BLOCK
  5
3B
100
AcDbEntity
  8
0
  6
CONTINUOUS
 62
     7
100
AcDbBlockBegin
  2
*G0
 70
     0
 10
0.0
 20
0.0
 30
0.0
  3
*G0
  1

  0
ENDBLK
  5
3C
100
AcDbEntity
  8
0
100
AcDbBlockEnd
  0
BLOCK
  5
51B
100
AcDbEntity
  8
2
  6
CONTINUOUS
 62
     7
100
AcDbBlockBegin
  2
*G1
 70
     0
 10
0.0
 20
0.0
 30
0.0
  3
*G1
  1

  0
LINE
  5
51C
100
AcDbEntity
  8
2
  6
CONTINUOUS
 62
     7
100
AcDbLine
 10
1727.316511
 20
921.524839
 30
0.0
 11
1327.316511
 21
921.524839
 31
0.0
  0
LINE
  5
51D
100
AcDbEntity
  8
2
  6
CONTINUOUS
 62
     7
100
AcDbLine
 10
1727.316511
 20
945.524839
 30
0.0
 11
1727.316511
 21
898.133639
 31
0.0
  0
LINE
  5
51E
100
AcDbEntity
  8
2
  6
CONTINUOUS
 62
     7
100
AcDbLine
 10
1327.316511
 20
945.524839
 30
0.0
 11
1327.316511
 21
870.667239
 31
0.0
  0
LINE
  5
51F
100
AcDbEntity
  8
2
  6
CONTINUOUS
 62
     7
100
AcDbLine
 10
1727.316511
 20
921.524839
 30
0.0
 11
1698.338736
 21
913.760268
 31
0.0
  0
LINE
  5
520
100
AcDbEntity
  8
2
  6
CONTINUOUS
 62
     7
100
AcDbLine
 10
1727.316511
 20
921.524839
 30
0.0
 11
1698.338736
 21
929.28941
 31
0.0
  0
LINE
  5
521
100
AcDbEntity
  8
2
  6
CONTINUOUS
 62
     7
100
AcDbLine
 10
1327.316511
 20
921.524839
 30
0.0
 11
1356.294286
 21
929.28941
 31
0.0
  0
LINE
  5
522
100
AcDbEntity
  8
2
  6
CONTINUOUS
 62
     7
100
AcDbLine
 10
1327.316511
 20
921.524839
 30
0.0
 11
1356.294286
 21
913.760268
 31
0.0
  0
TEXT
  5
523
100
AcDbEntity
  8
2
  6
CONTINUOUS
 62
     7
100
AcDbText
 10
1482.316511
 20
921.524839
 30
0.0
 40
60.0
  1
400
 41
0.5
 51
15.0
 11
1482.316511
 21
921.524839
 31
0.0
100
AcDbText
 73
     1
  0
ENDBLK
  5
524
100
AcDbEntity
  8
0
100
AcDbBlockEnd
  0
BLOCK
  5
527
100
AcDbEntity
  8
2
  6
CONTINUOUS
 62
     7
100
AcDbBlockBegin
  2
*G2
 70
     0
 10
0.0
 20
0.0
 30
0.0
  3
*G2
  1

  0
LINE
  5
528
100
AcDbEntity
  8
2
  6
CONTINUOUS
 62
     7
100
AcDbLine
 10
1330.316511
 20
877.215239
 30
0.0
 11
1327.316511
 21
877.215239
 31
0.0
  0
LINE
  5
529
100
AcDbEntity
  8
2
  6
CONTINUOUS
 62
     7
100
AcDbLine
 10
1330.316511
 20
901.215239
 30
0.0
 11
1330.316511
 21
856.017639
 31
0.0
  0
LINE
  5
52A
100
AcDbEntity
  8
2
  6
CONTINUOUS
 62
     7
100
AcDbLine
 10
1327.316511
 20
901.215239
 30
0.0
 11
1327.316511
 21
870.667239
 31
0.0
  0
LINE
  5
52B
100
AcDbEntity
  8
2
  6
CONTINUOUS
 62
     7
100
AcDbLine
 10
1330.316511
 20
877.215239
 30
0.0
 11
1301.338736
 21
869.450668
 31
0.0
  0
LINE
  5
52C
100
AcDbEntity
  8
2
  6
CONTINUOUS
 62
     7
100
AcDbLine
 10
1330.316511
 20
877.215239
 30
0.0
 11
1301.338736
 21
884.97981
 31
0.0
  0
LINE
  5
52D
100
AcDbEntity
  8
2
  6
CONTINUOUS
 62
     7
100
AcDbLine
 10
1327.316511
 20
877.215239
 30
0.0
 11
1356.294286
 21
884.97981
 31
0.0
  0
LINE
  5
52E
100
AcDbEntity
  8
2
  6
CONTINUOUS
 62
     7
100
AcDbLine
 10
1327.316511
 20
877.215239
 30
0.0
 11
1356.294286
 21
869.450668
 31
0.0
  0
TEXT
  5
52F
100
AcDbEntity
  8
2
  6
CONTINUOUS
 62
     7
100
AcDbText
 10
1313.816511
 20
877.215239
 30
0.0
 40
60.0
  1
3
 41
0.5
 51
15.0
 11
1313.816511
 21
877.215239
 31
0.0
100
AcDbText
 73
     1
  0
ENDBLK
  5
530
100
AcDbEntity
  8
0
100
AcDbBlockEnd
  0
BLOCK
  5
533
100
AcDbEntity
  8
2
  6
CONTINUOUS
 62
     7
100
AcDbBlockBegin
  2
*G3
 70
     0
 10
0.0
 20
0.0
 30
0.0
  3
*G3
  1

  0
LINE
  5
534
100
AcDbEntity
  8
2
  6
CONTINUOUS
 62
     7
100
AcDbLine
 10
1527.316511
 20
561.376839
 30
0.0
 11
1327.316511
 21
561.376839
 31
0.0
  0
LINE
  5
535
100
AcDbEntity
  8
2
  6
CONTINUOUS
 62
     7
100
AcDbLine
 10
1527.316511
 20
537.376839
 30
0.0
 11
1527.316511
 21
627.108039
 31
0.0
  0
LINE
  5
536
100
AcDbEntity
  8
2
  6
CONTINUOUS
 62
     7
100
AcDbLine
 10
1327.316511
 20
537.376839
 30
0.0
 11
1327.316511
 21
723.667239
 31
0.0
  0
LINE
  5
537
100
AcDbEntity
  8
2
  6
CONTINUOUS
 62
     7
100
AcDbLine
 10
1527.316511
 20
561.376839
 30
0.0
 11
1498.338736
 21
553.612268
 31
0.0
  0
LINE
  5
538
100
AcDbEntity
  8
2
  6
CONTINUOUS
 62
     7
100
AcDbLine
 10
1527.316511
 20
561.376839
 30
0.0
 11
1498.338736
 21
569.14141
 31
0.0
  0
LINE
  5
539
100
AcDbEntity
  8
2
  6
CONTINUOUS
 62
     7
100
AcDbLine
 10
1327.316511
 20
561.376839
 30
0.0
 11
1356.294286
 21
569.14141
 31
0.0
  0
LINE
  5
53A
100
AcDbEntity
  8
2
  6
CONTINUOUS
 62
     7
100
AcDbLine
 10
1327.316511
 20
561.376839
 30
0.0
 11
1356.294286
 21
553.612268
 31
0.0
  0
TEXT
  5
53B
100
AcDbEntity
  8
2
  6
CONTINUOUS
 62
     7
100
AcDbText
 10
1382.316511
 20
561.376839
 30
0.0
 40
60.0
  1
200
 41
0.5
 51
15.0
 11
1382.316511
 21
561.376839
 31
0.0
100
AcDbText
 73
     1
  0
ENDBLK
  5
53C
100
AcDbEntity
  8
0
100
AcDbBlockEnd
  0
BLOCK
  5
53F
100
AcDbEntity
  8
2
  6
CONTINUOUS
 62
     7
100
AcDbBlockBegin
  2
*G4
 70
     0
 10
0.0
 20
0.0
 30
0.0
  3
*G4
  1

  0
LINE
  5
540
100
AcDbEntity
  8
2
  6
CONTINUOUS
 62
     7
100
AcDbLine
 10
1927.316511
 20
561.376839
 30
0.0
 11
1527.316511
 21
561.376839
 31
0.0
  0
LINE
  5
541
100
AcDbEntity
  8
2
  6
CONTINUOUS
 62
     7
100
AcDbLine
 10
1927.316511
 20
537.376839
 30
0.0
 11
1927.316511
 21
627.108039
 31
0.0
  0
LINE
  5
542
100
AcDbEntity
  8
2
  6
CONTINUOUS
 62
     7
100
AcDbLine
 10
1527.316511
 20
537.376839
 30
0.0
 11
1527.316511
 21
627.108039
 31
0.0
  0
LINE
  5
543
100
AcDbEntity
  8
2
  6
CONTINUOUS
 62
     7
100
AcDbLine
 10
1927.316511
 20
561.376839
 30
0.0
 11
1898.338736
 21
553.612268
 31
0.0
  0
LINE
  5
544
100
AcDbEntity
  8
2
  6
CONTINUOUS
 62
     7
100
AcDbLine
 10
1927.316511
 20
561.376839
 30
0.0
 11
1898.338736
 21
569.14141
 31
0.0
  0
LINE
  5
545
100
AcDbEntity
  8
2
  6
CONTINUOUS
 62
     7
100
AcDbLine
 10
1527.316511
 20
561.376839
 30
0.0
 11
1556.294286
 21
569.14141
 31
0.0
  0
LINE
  5
546
100
AcDbEntity
  8
2
  6
CONTINUOUS
 62
     7
100
AcDbLine
 10
1527.316511
 20
561.376839
 30
0.0
 11
1556.294286
 21
553.612268
 31
0.0
  0
TEXT
  5
547
100
AcDbEntity
  8
2
  6
CONTINUOUS
 62
     7
100
AcDbText
 10
1682.316511
 20
561.376839
 30
0.0
 40
60.0
  1
400
 41
0.5
 51
15.0
 11
1682.316511
 21
561.376839
 31
0.0
100
AcDbText
 73
     1
  0
ENDBLK
  5
548
100
AcDbEntity
  8
0
100
AcDbBlockEnd
  0
BLOCK
  5
54B
100
AcDbEntity
  8
2
  6
CONTINUOUS
 62
     7
100
AcDbBlockBegin
  2
*G5
 70
     0
 10
0.0
 20
0.0
 30
0.0
  3
*G5
  1

  0
LINE
  5
54C
100
AcDbEntity
  8
2
  6
CONTINUOUS
 62
     7
100
AcDbLine
 10
1927.316511
 20
561.376839
 30
0.0
 11
2327.316511
 21
561.376839
 31
0.0
  0
LINE
  5
54D
100
AcDbEntity
  8
2
  6
CONTINUOUS
 62
     7
100
AcDbLine
 10
1927.316511
 20
537.376839
 30
0.0
 11
1927.316511
 21
627.108039
 31
0.0
  0
LINE
  5
54E
100
AcDbEntity
  8
2
  6
CONTINUOUS
 62
     7
100
AcDbLine
 10
2327.316511
 20
537.376839
 30
0.0
 11
2327.316511
 21
627.108039
 31
0.0
  0
LINE
  5
54F
100
AcDbEntity
  8
2
  6
CONTINUOUS
 62
     7
100
AcDbLine
 10
1927.316511
 20
561.376839
 30
0.0
 11
1956.294286
 21
569.14141
 31
0.0
  0
LINE
  5
550
100
AcDbEntity
  8
2
  6
CONTINUOUS
 62
     7
100
AcDbLine
 10
1927.316511
 20
561.376839
 30
0.0
 11
1956.294286
 21
553.612268
 31
0.0
  0
LINE
  5
551
100
AcDbEntity
  8
2
  6
CONTINUOUS
 62
     7
100
AcDbLine
 10
2327.316511
 20
561.376839
 30
0.0
 11
2298.338736
 21
553.612268
 31
0.0
  0
LINE
  5
552
100
AcDbEntity
  8
2
  6
CONTINUOUS
 62
     7
100
AcDbLine
 10
2327.316511
 20
561.376839
 30
0.0
 11
2298.338736
 21
569.14141
 31
0.0
  0
TEXT
  5
553
100
AcDbEntity
  8
2
  6
CONTINUOUS
 62
     7
100
AcDbText
 10
2082.316511
 20
561.376839
 30
0.0
 40
60.0
  1
400
 41
0.5
 51
15.0
 11
2082.316511
 21
561.376839
 31
0.0
100
AcDbText
 73
     1
  0
ENDBLK
  5
554
100
AcDbEntity
  8
0
100
AcDbBlockEnd
  0
BLOCK
  5
557
100
AcDbEntity
  8
2
  6
CONTINUOUS
 62
     7
100
AcDbBlockBegin
  2
*G6
 70
     0
 10
0.0
 20
0.0
 30
0.0
  3
*G6
  1

  0
LINE
  5
558
100
AcDbEntity
  8
2
  6
CONTINUOUS
 62
     7
100
AcDbLine
 10
2727.316511
 20
561.376839
 30
0.0
 11
2327.316511
 21
561.376839
 31
0.0
  0
LINE
  5
559
100
AcDbEntity
  8
2
  6
CONTINUOUS
 62
     7
100
AcDbLine
 10
2727.316511
 20
537.376839
 30
0.0
 11
2727.316511
 21
627.108039
 31
0.0
  0
LINE
  5
55A
100
AcDbEntity
  8
2
  6
CONTINUOUS
 62
     7
100
AcDbLine
 10
2327.316511
 20
537.376839
 30
0.0
 11
2327.316511
 21
627.108039
 31
0.0
  0
LINE
  5
55B
100
AcDbEntity
  8
2
  6
CONTINUOUS
 62
     7
100
AcDbLine
 10
2727.316511
 20
561.376839
 30
0.0
 11
2698.338736
 21
553.612268
 31
0.0
  0
LINE
  5
55C
100
AcDbEntity
  8
2
  6
CONTINUOUS
 62
     7
100
AcDbLine
 10
2727.316511
 20
561.376839
 30
0.0
 11
2698.338736
 21
569.14141
 31
0.0
  0
LINE
  5
55D
100
AcDbEntity
  8
2
  6
CONTINUOUS
 62
     7
100
AcDbLine
 10
2327.316511
 20
561.376839
 30
0.0
 11
2356.294286
 21
569.14141
 31
0.0
  0
LINE
  5
55E
100
AcDbEntity
  8
2
  6
CONTINUOUS
 62
     7
100
AcDbLine
 10
2327.316511
 20
561.376839
 30
0.0
 11
2356.294286
 21
553.612268
 31
0.0
  0
TEXT
  5
55F
100
AcDbEntity
  8
2
  6
CONTINUOUS
 62
     7
100
AcDbText
 10
2482.316511
 20
561.376839
 30
0.0
 40
60.0
  1
400
 41
0.5
 51
15.0
 11
2482.316511
 21
561.376839
 31
0.0
100
AcDbText
 73
     1
  0
ENDBLK
  5
560
100
AcDbEntity
  8
0
100
AcDbBlockEnd
  0
BLOCK
  5
563
100
AcDbEntity
  8
2
  6
CONTINUOUS
 62
     7
100
AcDbBlockBegin
  2
*G7
 70
     0
 10
0.0
 20
0.0
 30
0.0
  3
*G7
  1

  0
LINE
  5
564
100
AcDbEntity
  8
2
  6
CONTINUOUS
 62
     7
100
AcDbLine
 10
2927.316511
 20
448.046439
 30
0.0
 11
1327.316511
 21
448.046439
 31
0.0
  0
LINE
  5
565
100
AcDbEntity
  8
2
  6
CONTINUOUS
 62
     7
100
AcDbLine
 10
2927.316511
 20
424.046439
 30
0.0
 11
2927.316511
 21
495.088839
 31
0.0
  0
LINE
  5
566
100
AcDbEntity
  8
2
  6
CONTINUOUS
 62
     7
100
AcDbLine
 10
1327.316511
 20
424.046439
 30
0.0
 11
1327.316511
 21
495.088839
 31
0.0
  0
LINE
  5
567
100
AcDbEntity
  8
2
  6
CONTINUOUS
 62
     7
100
AcDbLine
 10
2927.316511
 20
448.046439
 30
0.0
 11
2898.338736
 21
440.281868
 31
0.0
  0
LINE
  5
568
100
AcDbEntity
  8
2
  6
CONTINUOUS
 62
     7
100
AcDbLine
 10
2927.316511
 20
448.046439
 30
0.0
 11
2898.338736
 21
455.81101
 31
0.0
  0
LINE
  5
569
100
AcDbEntity
  8
2
  6
CONTINUOUS
 62
     7
100
AcDbLine
 10
1327.316511
 20
448.046439
 30
0.0
 11
1356.294286
 21
455.81101
 31
0.0
  0
LINE
  5
56A
100
AcDbEntity
  8
2
  6
CONTINUOUS
 62
     7
100
AcDbLine
 10
1327.316511
 20
448.046439
 30
0.0
 11
1356.294286
 21
440.281868
 31
0.0
  0
TEXT
  5
56B
100
AcDbEntity
  8
2
  6
CONTINUOUS
 62
     7
100
AcDbText
 10
2067.316511
 20
448.046439
 30
0.0
 40
60.0
  1
1600
 41
0.5
 51
15.0
 11
2067.316511
 21
448.046439
 31
0.0
100
AcDbText
 73
     1
  0
ENDBLK
  5
56C
100
AcDbEntity
  8
0
100
AcDbBlockEnd
  0
BLOCK
  5
56F
100
AcDbEntity
  8
2
  6
CONTINUOUS
 62
     7
100
AcDbBlockBegin
  2
*G8
 70
     0
 10
0.0
 20
0.0
 30
0.0
  3
*G8
  1

  0
LINE
  5
570
100
AcDbEntity
  8
2
  6
CONTINUOUS
 62
     7
100
AcDbLine
 10
2927.316511
 20
561.376839
 30
0.0
 11
2727.316511
 21
561.376839
 31
0.0
  0
LINE
  5
571
100
AcDbEntity
  8
2
  6
CONTINUOUS
 62
     7
100
AcDbLine
 10
2927.316511
 20
537.376839
 30
0.0
 11
2927.316511
 21
723.667239
 31
0.0
  0
LINE
  5
572
100
AcDbEntity
  8
2
  6
CONTINUOUS
 62
     7
100
AcDbLine
 10
2727.316511
 20
537.376839
 30
0.0
 11
2727.316511
 21
627.108039
 31
0.0
  0
LINE
  5
573
100
AcDbEntity
  8
2
  6
CONTINUOUS
 62
     7
100
AcDbLine
 10
2927.316511
 20
561.376839
 30
0.0
 11
2898.338736
 21
553.612268
 31
0.0
  0
LINE
  5
574
100
AcDbEntity
  8
2
  6
CONTINUOUS
 62
     7
100
AcDbLine
 10
2927.316511
 20
561.376839
 30
0.0
 11
2898.338736
 21
569.14141
 31
0.0
  0
LINE
  5
575
100
AcDbEntity
  8
2
  6
CONTINUOUS
 62
     7
100
AcDbLine
 10
2727.316511
 20
561.376839
 30
0.0
 11
2756.294286
 21
569.14141
 31
0.0
  0
LINE
  5
576
100
AcDbEntity
  8
2
  6
CONTINUOUS
 62
     7
100
AcDbLine
 10
2727.316511
 20
561.376839
 30
0.0
 11
2756.294286
 21
553.612268
 31
0.0
  0
TEXT
  5
577
100
AcDbEntity
  8
2
  6
CONTINUOUS
 62
     7
100
AcDbText
 10
2782.316511
 20
561.376839
 30
0.0
 40
60.0
  1
200
 41
0.5
 51
15.0
 11
2782.316511
 21
561.376839
 31
0.0
100
AcDbText
 73
     1
  0
ENDBLK
  5
578
100
AcDbEntity
  8
0
100
AcDbBlockEnd
  0
ENDSEC
  0
SECTION
  2
ENTITIES
  0
INSERT
  5
3D
100
AcDbEntity
  8
0
  6
CONTINUOUS
 62
     7
100
AcDbBlockReference
  2
*G0
 10
0.0
 20
0.0
 30
0.0
  0
LINE
  5
3E
100
AcDbEntity
  8
2
  6
CONTINUOUS
 62
     7
100
AcDbLine
 10
1327.316511
 20
822.667239
 30
0.0
 11
1327.316511
 21
771.667239
 31
0.0
  0
LINE
  5
3F
100
AcDbEntity
  8
2
  6
CENTER
 62
     7
100
AcDbLine
 10
1302.499711
 20
797.167239
 30
0.0
 11
1527.316511
 21
797.167239
 31
0.0
  0
LINE
  5
40
100
AcDbEntity
  8
2
  6
CONTINUOUS
 62
     7
100
AcDbLine
 10
1327.316511
 20
771.667239
 30
0.0
 11
1328.316511
 21
771.667239
 31
0.0
  0
LINE
  5
41
100
AcDbEntity
  8
2
  6
CONTINUOUS
 62
     7
100
AcDbLine
 10
1327.316511
 20
822.667239
 30
0.0
 11
1328.316511
 21
822.667239
 31
0.0
  0
LINE
  5
42
100
AcDbEntity
  8
2
  6
CONTINUOUS
 62
     7
100
AcDbLine
 10
1330.316511
 20
844.667239
 30
0.0
 11
1339.316511
 21
844.667239
 31
0.0
  0
LINE
  5
43
100
AcDbEntity
  8
2
  6
CONTINUOUS
 62
     7
100
AcDbLine
 10
1330.316511
 20
749.667239
 30
0.0
 11
1339.316511
 21
749.667239
 31
0.0
  0
LINE
  5
44
100
AcDbEntity
  8
2
  6
CONTINUOUS
 62
     7
100
AcDbLine
 10
1345.316511
 20
815.017639
 30
0.0
 11
1347.316511
 21
815.017639
 31
0.0
  0
LINE
  5
45
100
AcDbEntity
  8
2
  6
CONTINUOUS
 62
     7
100
AcDbLine
 10
1347.316511
 20
813.017639
 30
0.0
 11
1352.316511
 21
808.016839
 31
0.0
  0
LINE
  5
46
100
AcDbEntity
  8
2
  6
CONTINUOUS
 62
     7
100
AcDbLine
 10
1341.316511
 20
751.667239
 30
0.0
 11
1341.316511
 21
797.167239
 31
0.0
  0
LINE
  5
47
100
AcDbEntity
  8
2
  6
CONTINUOUS
 62
     7
100
AcDbLine
 10
1345.316511
 20
779.316839
 30
0.0
 11
1347.316511
 21
779.316839
 31
0.0
  0
LINE
  5
48
100
AcDbEntity
  8
2
  6
CONTINUOUS
 62
     7
100
AcDbLine
 10
1347.316511
 20
779.316839
 30
0.0
 11
1347.316511
 21
797.167239
 31
0.0
  0
LINE
  5
49
100
AcDbEntity
  8
2
  6
CONTINUOUS
 62
     7
100
AcDbLine
 10
1347.316511
 20
781.317639
 30
0.0
 11
1352.316511
 21
786.317639
 31
0.0
  0
LINE
  5
4A
100
AcDbEntity
  8
2
  6
CONTINUOUS
 62
     7
100
AcDbLine
 10
1352.316511
 20
797.167239
 30
0.0
 11
1352.316511
 21
786.316839
 31
0.0
  0
LINE
  5
4B
100
AcDbEntity
  8
2
  6
CONTINUOUS
 62
     7
100
AcDbLine
 10
1328.316511
 20
797.167239
 30
0.0
 11
1328.316511
 21
751.667239
 31
0.0
  0
LINE
  5
4C
100
AcDbEntity
  8
2
  6
CONTINUOUS
 62
     7
100
AcDbLine
 10
2927.316511
 20
822.667239
 30
0.0
 11
2927.316511
 21
771.667239
 31
0.0
  0
LINE
  5
4D
100
AcDbEntity
  8
2
  6
CENTER
 62
     7
100
AcDbLine
 10
2927.773311
 20
797.167239
 30
0.0
 11
1527.316511
 21
797.167239
 31
0.0
  0
LINE
  5
4E
100
AcDbEntity
  8
2
  6
CONTINUOUS
 62
     7
100
AcDbLine
 10
2927.316511
 20
771.667239
 30
0.0
 11
2926.316511
 21
771.667239
 31
0.0
  0
LINE
  5
4F
100
AcDbEntity
  8
2
  6
CONTINUOUS
 62
     7
100
AcDbLine
 10
2927.316511
 20
822.667239
 30
0.0
 11
2926.316511
 21
822.667239
 31
0.0
  0
LINE
  5
50
100
AcDbEntity
  8
2
  6
CONTINUOUS
 62
     7
100
AcDbLine
 10
2924.316511
 20
844.667239
 30
0.0
 11
2915.316511
 21
844.667239
 31
0.0
  0
LINE
  5
51
100
AcDbEntity
  8
2
  6
CONTINUOUS
 62
     7
100
AcDbLine
 10
2924.316511
 20
749.667239
 30
0.0
 11
2915.316511
 21
749.667239
 31
0.0
  0
LINE
  5
52
100
AcDbEntity
  8
2
  6
CONTINUOUS
 62
     7
100
AcDbLine
 10
2909.316511
 20
815.017639
 30
0.0
 11
2907.316511
 21
815.017639
 31
0.0
  0
LINE
  5
53
100
AcDbEntity
  8
2
  6
CONTINUOUS
 62
     7
100
AcDbLine
 10
2907.316511
 20
813.017639
 30
0.0
 11
2902.316511
 21
808.017639
 31
0.0
  0
LINE
  5
54
100
AcDbEntity
  8
2
  6
CONTINUOUS
 62
     7
100
AcDbLine
 10
2913.316511
 20
751.667239
 30
0.0
 11
2913.316511
 21
797.167239
 31
0.0
  0
LINE
  5
55
100
AcDbEntity
  8
2
  6
CONTINUOUS
 62
     7
100
AcDbLine
 10
2909.316511
 20
779.316839
 30
0.0
 11
2907.316511
 21
779.316839
 31
0.0
  0
LINE
  5
56
100
AcDbEntity
  8
2
  6
CONTINUOUS
 62
     7
100
AcDbLine
 10
2907.316511
 20
779.316839
 30
0.0
 11
2907.316511
 21
797.167239
 31
0.0
  0
LINE
  5
57
100
AcDbEntity
  8
2
  6
CONTINUOUS
 62
     7
100
AcDbLine
 10
2907.316511
 20
781.316839
 30
0.0
 11
2902.316511
 21
786.317639
 31
0.0
  0
LINE
  5
58
100
AcDbEntity
  8
2
  6
CONTINUOUS
 62
     7
100
AcDbLine
 10
2902.316511
 20
797.167239
 30
0.0
 11
2902.316511
 21
786.316839
 31
0.0
  0
LINE
  5
59
100
AcDbEntity
  8
2
  6
CONTINUOUS
 62
     7
100
AcDbLine
 10
2926.316511
 20
797.167239
 30
0.0
 11
2926.316511
 21
751.667239
 31
0.0
  0
LINE
  5
5A
100
AcDbEntity
  8
2
  6
CONTINUOUS
 62
     7
100
AcDbLine
 10
1352.316511
 20
786.316839
 30
0.0
 11
1518.316511
 21
786.316839
 31
0.0
  0
LINE
  5
5B
100
AcDbEntity
  8
2
  6
CONTINUOUS
 62
     7
100
AcDbLine
 10
2718.316511
 20
786.316839
 30
0.0
 11
2718.316511
 21
778.316839
 31
0.0
  0
LINE
  5
5C
100
AcDbEntity
  8
2
  6
CONTINUOUS
 62
     7
100
AcDbLine
 10
2718.316511
 20
778.316839
 30
0.0
 11
2727.316511
 21
778.316839
 31
0.0
  0
LINE
  5
5D
100
AcDbEntity
  8
2
  6
CONTINUOUS
 62
     7
100
AcDbLine
 10
2718.969311
 20
771.317639
 30
0.0
 11
2718.786111
 21
778.316839
 31
0.0
  0
LINE
  5
5E
100
AcDbEntity
  8
2
  6
CONTINUOUS
 62
     7
100
AcDbLine
 10
2719.824511
 20
771.316839
 30
0.0
 11
2719.681311
 21
776.765639
 31
0.0
  0
LINE
  5
5F
100
AcDbEntity
  8
2
  6
CONTINUOUS
 62
     7
100
AcDbLine
 10
2718.786111
 20
778.317639
 30
0.0
 11
2719.681311
 21
776.765639
 31
0.0
  0
LINE
  5
60
100
AcDbEntity
  8
2
  6
CONTINUOUS
 62
     7
100
AcDbLine
 10
2718.826911
 20
776.765639
 30
0.0
 11
2727.316511
 21
776.765639
 31
0.0
  0
LINE
  5
61
100
AcDbEntity
  8
2
  6
CONTINUOUS
 62
     7
100
AcDbLine
 10
2735.806111
 20
776.765639
 30
0.0
 11
2727.316511
 21
776.765639
 31
0.0
  0
LINE
  5
62
100
AcDbEntity
  8
2
  6
CONTINUOUS
 62
     7
100
AcDbLine
 10
2736.316511
 20
786.316839
 30
0.0
 11
2736.316511
 21
778.316839
 31
0.0
  0
LINE
  5
63
100
AcDbEntity
  8
2
  6
CONTINUOUS
 62
     7
100
AcDbLine
 10
2736.316511
 20
778.316839
 30
0.0
 11
2727.316511
 21
778.316839
 31
0.0
  0
LINE
  5
64
100
AcDbEntity
  8
2
  6
CONTINUOUS
 62
     7
100
AcDbLine
 10
2735.663711
 20
771.316839
 30
0.0
 11
2735.846911
 21
778.317639
 31
0.0
  0
LINE
  5
65
100
AcDbEntity
  8
2
  6
CONTINUOUS
 62
     7
100
AcDbLine
 10
2734.808511
 20
771.317639
 30
0.0
 11
2734.951711
 21
776.765639
 31
0.0
  0
LINE
  5
66
100
AcDbEntity
  8
2
  6
CONTINUOUS
 62
     7
100
AcDbLine
 10
2735.846911
 20
778.317639
 30
0.0
 11
2734.950911
 21
776.765639
 31
0.0
  0
LINE
  5
67
100
AcDbEntity
  8
2
  6
CONTINUOUS
 62
     7
100
AcDbLine
 10
2736.316511
 20
783.316839
 30
0.0
 11
2739.316511
 21
786.316839
 31
0.0
  0
LINE
  5
68
100
AcDbEntity
  8
2
  6
CONTINUOUS
 62
     7
100
AcDbLine
 10
2718.316511
 20
783.317639
 30
0.0
 11
2715.316511
 21
786.317639
 31
0.0
  0
LINE
  5
69
100
AcDbEntity
  8
2
  6
CENTER
 62
     7
100
AcDbLine
 10
2727.316511
 20
822.667239
 30
0.0
 11
2727.316511
 21
771.667239
 31
0.0
  0
LINE
  5
6A
100
AcDbEntity
  8
2
  6
CENTER
 62
     7
100
AcDbLine
 10
2710.690911
 20
743.316839
 30
0.0
 11
2741.035711
 21
743.316839
 31
0.0
  0
LINE
  5
6B
100
AcDbEntity
  8
2
  6
CENTER
 62
     7
100
AcDbLine
 10
2727.316511
 20
775.469639
 30
0.0
 11
2727.316511
 21
675.108039
 31
0.0
  0
LINE
  5
6C
100
AcDbEntity
  8
2
  6
CONTINUOUS
 62
     7
100
AcDbLine
 10
2716.816511
 20
771.316839
 30
0.0
 11
2737.816511
 21
771.316839
 31
0.0
  0
LINE
  5
6D
100
AcDbEntity
  8
2
  6
CONTINUOUS
 62
     7
100
AcDbLine
 10
2716.816511
 20
721.316839
 30
0.0
 11
2718.816511
 21
721.316839
 31
0.0
  0
LINE
  5
6E
100
AcDbEntity
  8
2
  6
CONTINUOUS
 62
     7
100
AcDbLine
 10
2716.816511
 20
771.316839
 30
0.0
 11
2716.816511
 21
721.316839
 31
0.0
  0
LINE
  5
6F
100
AcDbEntity
  8
2
  6
CONTINUOUS
 62
     7
100
AcDbLine
 10
2737.816511
 20
771.316839
 30
0.0
 11
2737.816511
 21
721.316839
 31
0.0
  0
LINE
  5
70
100
AcDbEntity
  8
2
  6
CONTINUOUS
 62
     7
100
AcDbLine
 10
2735.816511
 20
721.316839
 30
0.0
 11
2737.816511
 21
721.316839
 31
0.0
  0
LINE
  5
71
100
AcDbEntity
  8
2
  6
CONTINUOUS
 62
     7
100
AcDbLine
 10
2716.816511
 20
745.316839
 30
0.0
 11
2720.608511
 21
745.316839
 31
0.0
  0
LINE
  5
72
100
AcDbEntity
  8
2
  6
CONTINUOUS
 62
     7
100
AcDbLine
 10
2720.816511
 20
758.316839
 30
0.0
 11
2733.816511
 21
758.316839
 31
0.0
  0
LINE
  5
73
100
AcDbEntity
  8
2
  6
CONTINUOUS
 62
     7
100
AcDbLine
 10
2726.316511
 20
770.816839
 30
0.0
 11
2726.316511
 21
759.316839
 31
0.0
  0
LINE
  5
74
100
AcDbEntity
  8
2
  6
CONTINUOUS
 62
     7
100
AcDbLine
 10
2728.316511
 20
770.816839
 30
0.0
 11
2728.316511
 21
759.316839
 31
0.0
  0
LINE
  5
75
100
AcDbEntity
  8
2
  6
CONTINUOUS
 62
     7
100
AcDbLine
 10
2733.816511
 20
758.316839
 30
0.0
 11
2733.816511
 21
753.816839
 31
0.0
  0
LINE
  5
76
100
AcDbEntity
  8
2
  6
CONTINUOUS
 62
     7
100
AcDbLine
 10
2726.316511
 20
759.316839
 30
0.0
 11
2728.316511
 21
759.316839
 31
0.0
  0
LINE
  5
77
100
AcDbEntity
  8
2
  6
CONTINUOUS
 62
     7
100
AcDbLine
 10
2720.816511
 20
758.316839
 30
0.0
 11
2726.316511
 21
759.316839
 31
0.0
  0
LINE
  5
78
100
AcDbEntity
  8
2
  6
CONTINUOUS
 62
     7
100
AcDbLine
 10
2728.316511
 20
759.316839
 30
0.0
 11
2733.816511
 21
758.317639
 31
0.0
  0
LINE
  5
79
100
AcDbEntity
  8
2
  6
CONTINUOUS
 62
     7
100
AcDbLine
 10
2717.316511
 20
770.816839
 30
0.0
 11
2717.316511
 21
745.316839
 31
0.0
  0
LINE
  5
7A
100
AcDbEntity
  8
2
  6
CONTINUOUS
 62
     7
100
AcDbLine
 10
2717.316511
 20
736.316839
 30
0.0
 11
2717.316511
 21
721.816839
 31
0.0
  0
LINE
  5
7B
100
AcDbEntity
  8
2
  6
CONTINUOUS
 62
     7
100
AcDbLine
 10
2737.316511
 20
741.316839
 30
0.0
 11
2737.316511
 21
721.816839
 31
0.0
  0
LINE
  5
7C
100
AcDbEntity
  8
2
  6
CONTINUOUS
 62
     7
100
AcDbLine
 10
2737.316511
 20
770.816839
 30
0.0
 11
2737.316511
 21
745.316839
 31
0.0
  0
LINE
  5
7D
100
AcDbEntity
  8
2
  6
CONTINUOUS
 62
     7
100
AcDbLine
 10
2726.316511
 20
770.816839
 30
0.0
 11
2728.316511
 21
770.816839
 31
0.0
  0
LINE
  5
7E
100
AcDbEntity
  8
2
  6
CONTINUOUS
 62
     7
100
AcDbLine
 10
2716.816511
 20
721.816839
 30
0.0
 11
2717.316511
 21
721.816839
 31
0.0
  0
LINE
  5
7F
100
AcDbEntity
  8
2
  6
CONTINUOUS
 62
     7
100
AcDbLine
 10
2717.316511
 20
721.816839
 30
0.0
 11
2718.816511
 21
721.316839
 31
0.0
  0
LINE
  5
80
100
AcDbEntity
  8
2
  6
CONTINUOUS
 62
     7
100
AcDbLine
 10
2716.816511
 20
770.816839
 30
0.0
 11
2717.316511
 21
770.816839
 31
0.0
  0
LINE
  5
81
100
AcDbEntity
  8
2
  6
CONTINUOUS
 62
     7
100
AcDbLine
 10
2737.316511
 20
770.816839
 30
0.0
 11
2737.816511
 21
770.816839
 31
0.0
  0
LINE
  5
82
100
AcDbEntity
  8
2
  6
CONTINUOUS
 62
     7
100
AcDbLine
 10
2737.316511
 20
721.816839
 30
0.0
 11
2737.816511
 21
721.816839
 31
0.0
  0
LINE
  5
83
100
AcDbEntity
  8
2
  6
CONTINUOUS
 62
     7
100
AcDbLine
 10
2735.816511
 20
721.316839
 30
0.0
 11
2737.316511
 21
721.816839
 31
0.0
  0
LINE
  5
84
100
AcDbEntity
  8
2
  6
CONTINUOUS
 62
     7
100
AcDbLine
 10
2729.316511
 20
753.816839
 30
0.0
 11
2729.316511
 21
750.317639
 31
0.0
  0
LINE
  5
85
100
AcDbEntity
  8
2
  6
CONTINUOUS
 62
     7
100
AcDbLine
 10
2727.316511
 20
750.317639
 30
0.0
 11
2729.316511
 21
750.317639
 31
0.0
  0
LINE
  5
86
100
AcDbEntity
  8
2
  6
CONTINUOUS
 62
     7
100
AcDbLine
 10
2727.316511
 20
681.317639
 30
0.0
 11
2733.316511
 21
684.781639
 31
0.0
  0
LINE
  5
87
100
AcDbEntity
  8
2
  6
CONTINUOUS
 62
     7
100
AcDbLine
 10
2733.316511
 20
684.781639
 30
0.0
 11
2735.816511
 21
721.317639
 31
0.0
  0
LINE
  5
88
100
AcDbEntity
  8
2
  6
CONTINUOUS
 62
     7
100
AcDbLine
 10
2721.316511
 20
684.781639
 30
0.0
 11
2718.816511
 21
721.317639
 31
0.0
  0
LINE
  5
89
100
AcDbEntity
  8
2
  6
CONTINUOUS
 62
     7
100
AcDbLine
 10
2727.316511
 20
681.316839
 30
0.0
 11
2721.316511
 21
684.781639
 31
0.0
  0
LINE
  5
8A
100
AcDbEntity
  8
2
  6
CONTINUOUS
 62
     7
100
AcDbLine
 10
2721.178911
 20
726.317639
 30
0.0
 11
2727.316511
 21
726.317639
 31
0.0
  0
LINE
  5
8B
100
AcDbEntity
  8
2
  6
CONTINUOUS
 62
     7
100
AcDbLine
 10
2721.178911
 20
726.316839
 30
0.0
 11
2720.272511
 21
725.410439
 31
0.0
  0
LINE
  5
8C
100
AcDbEntity
  8
2
  6
CONTINUOUS
 62
     7
100
AcDbLine
 10
2733.454111
 20
726.317639
 30
0.0
 11
2727.316511
 21
726.317639
 31
0.0
  0
LINE
  5
8D
100
AcDbEntity
  8
2
  6
CONTINUOUS
 62
     7
100
AcDbLine
 10
2733.454111
 20
726.317639
 30
0.0
 11
2734.360511
 21
725.410439
 31
0.0
  0
LINE
  5
8E
100
AcDbEntity
  8
2
  6
CONTINUOUS
 62
     7
100
AcDbLine
 10
2725.316511
 20
744.816839
 30
0.0
 11
2725.316511
 21
741.816839
 31
0.0
  0
LINE
  5
8F
100
AcDbEntity
  8
2
  6
CONTINUOUS
 62
     7
100
AcDbLine
 10
2729.316511
 20
744.816839
 30
0.0
 11
2729.316511
 21
741.816839
 31
0.0
  0
LINE
  5
90
100
AcDbEntity
  8
2
  6
CONTINUOUS
 62
     7
100
AcDbLine
 10
2725.295711
 20
746.816839
 30
0.0
 11
2723.274911
 21
743.316839
 31
0.0
  0
LINE
  5
91
100
AcDbEntity
  8
2
  6
CONTINUOUS
 62
     7
100
AcDbLine
 10
2723.274911
 20
743.316839
 30
0.0
 11
2725.295711
 21
739.816839
 31
0.0
  0
LINE
  5
92
100
AcDbEntity
  8
2
  6
CONTINUOUS
 62
     7
100
AcDbLine
 10
2729.337311
 20
739.817639
 30
0.0
 11
2725.295711
 21
739.817639
 31
0.0
  0
LINE
  5
93
100
AcDbEntity
  8
2
  6
CONTINUOUS
 62
     7
100
AcDbLine
 10
2731.358111
 20
743.316839
 30
0.0
 11
2729.337311
 21
739.816839
 31
0.0
  0
LINE
  5
94
100
AcDbEntity
  8
2
  6
CONTINUOUS
 62
     7
100
AcDbLine
 10
2729.337311
 20
746.817639
 30
0.0
 11
2731.358111
 21
743.316839
 31
0.0
  0
LINE
  5
95
100
AcDbEntity
  8
2
  6
CONTINUOUS
 62
     7
100
AcDbLine
 10
2725.295711
 20
746.817639
 30
0.0
 11
2729.337311
 21
746.817639
 31
0.0
  0
LINE
  5
96
100
AcDbEntity
  8
2
  6
CONTINUOUS
 62
     7
100
AcDbLine
 10
2720.316511
 20
732.316839
 30
0.0
 11
2734.316511
 21
732.316839
 31
0.0
  0
LINE
  5
97
100
AcDbEntity
  8
2
  6
CONTINUOUS
 62
     7
100
AcDbLine
 10
2734.316511
 20
753.816839
 30
0.0
 11
2734.316511
 21
732.316839
 31
0.0
  0
LINE
  5
98
100
AcDbEntity
  8
2
  6
CONTINUOUS
 62
     7
100
AcDbLine
 10
2720.316511
 20
743.316839
 30
0.0
 11
2720.316511
 21
741.316839
 31
0.0
  0
LINE
  5
99
100
AcDbEntity
  8
2
  6
CONTINUOUS
 62
     7
100
AcDbLine
 10
2720.316511
 20
732.317639
 30
0.0
 11
2719.316511
 21
731.316839
 31
0.0
  0
LINE
  5
9A
100
AcDbEntity
  8
2
  6
CONTINUOUS
 62
     7
100
AcDbLine
 10
2734.316511
 20
732.316839
 30
0.0
 11
2735.316511
 21
731.317639
 31
0.0
  0
LINE
  5
9B
100
AcDbEntity
  8
2
  6
CONTINUOUS
 62
     7
100
AcDbLine
 10
2716.816511
 20
741.316839
 30
0.0
 11
2720.316511
 21
741.316839
 31
0.0
  0
LINE
  5
9C
100
AcDbEntity
  8
2
  6
HIDDEN
 62
     7
100
AcDbLine
 10
2729.316511
 20
750.317639
 30
0.0
 11
2734.316511
 21
750.317639
 31
0.0
  0
LINE
  5
9D
100
AcDbEntity
  8
2
  6
CONTINUOUS
 62
     7
100
AcDbLine
 10
2734.316511
 20
741.316839
 30
0.0
 11
2737.816511
 21
741.316839
 31
0.0
  0
LINE
  5
9E
100
AcDbEntity
  8
2
  6
CONTINUOUS
 62
     7
100
AcDbLine
 10
2734.316511
 20
745.316839
 30
0.0
 11
2737.816511
 21
745.316839
 31
0.0
  0
LINE
  5
9F
100
AcDbEntity
  8
2
  6
CONTINUOUS
 62
     7
100
AcDbLine
 10
2716.816511
 20
736.316839
 30
0.0
 11
2720.316511
 21
736.316839
 31
0.0
  0
LINE
  5
A0
100
AcDbEntity
  8
2
  6
CONTINUOUS
 62
     7
100
AcDbLine
 10
2720.316511
 20
736.316839
 30
0.0
 11
2720.316511
 21
732.316839
 31
0.0
  0
LINE
  5
A1
100
AcDbEntity
  8
2
  6
HIDDEN
 62
     7
100
AcDbLine
 10
2720.316511
 20
741.316839
 30
0.0
 11
2720.316511
 21
736.316839
 31
0.0
  0
LINE
  5
A2
100
AcDbEntity
  8
2
  6
CONTINUOUS
 62
     7
100
AcDbLine
 10
2720.816511
 20
758.316839
 30
0.0
 11
2720.816511
 21
745.915239
 31
0.0
  0
LINE
  5
A3
100
AcDbEntity
  8
2
  6
CONTINUOUS
 62
     7
100
AcDbLine
 10
2718.816511
 20
721.317639
 30
0.0
 11
2719.316511
 21
724.152839
 31
0.0
  0
LINE
  5
A4
100
AcDbEntity
  8
2
  6
CONTINUOUS
 62
     7
100
AcDbLine
 10
2719.316511
 20
731.317639
 30
0.0
 11
2719.316511
 21
724.152839
 31
0.0
  0
LINE
  5
A5
100
AcDbEntity
  8
2
  6
CONTINUOUS
 62
     7
100
AcDbLine
 10
2735.316511
 20
731.317639
 30
0.0
 11
2735.316511
 21
724.152839
 31
0.0
  0
LINE
  5
A6
100
AcDbEntity
  8
2
  6
CONTINUOUS
 62
     7
100
AcDbLine
 10
2735.816511
 20
721.317639
 30
0.0
 11
2735.316511
 21
724.152839
 31
0.0
  0
LINE
  5
A7
100
AcDbEntity
  8
2
  6
CONTINUOUS
 62
     7
100
AcDbLine
 10
2729.316511
 20
753.816839
 30
0.0
 11
2734.316511
 21
753.816839
 31
0.0
  0
LINE
  5
A8
100
AcDbEntity
  8
2
  6
CONTINUOUS
 62
     7
100
AcDbLine
 10
1518.316511
 20
786.316839
 30
0.0
 11
1518.316511
 21
778.316839
 31
0.0
  0
LINE
  5
A9
100
AcDbEntity
  8
2
  6
CONTINUOUS
 62
     7
100
AcDbLine
 10
1518.316511
 20
778.316839
 30
0.0
 11
1527.316511
 21
778.316839
 31
0.0
  0
LINE
  5
AA
100
AcDbEntity
  8
2
  6
CONTINUOUS
 62
     7
100
AcDbLine
 10
1518.969311
 20
771.316839
 30
0.0
 11
1518.786111
 21
778.316839
 31
0.0
  0
LINE
  5
AB
100
AcDbEntity
  8
2
  6
CONTINUOUS
 62
     7
100
AcDbLine
 10
1519.824511
 20
771.316839
 30
0.0
 11
1519.682111
 21
776.765639
 31
0.0
  0
LINE
  5
AC
100
AcDbEntity
  8
2
  6
CONTINUOUS
 62
     7
100
AcDbLine
 10
1518.786111
 20
778.316839
 30
0.0
 11
1519.682111
 21
776.765639
 31
0.0
  0
LINE
  5
AD
100
AcDbEntity
  8
2
  6
CONTINUOUS
 62
     7
100
AcDbLine
 10
1518.826911
 20
776.765639
 30
0.0
 11
1527.316511
 21
776.765639
 31
0.0
  0
LINE
  5
AE
100
AcDbEntity
  8
2
  6
CONTINUOUS
 62
     7
100
AcDbLine
 10
1535.806111
 20
776.765639
 30
0.0
 11
1527.316511
 21
776.765639
 31
0.0
  0
LINE
  5
AF
100
AcDbEntity
  8
2
  6
CONTINUOUS
 62
     7
100
AcDbLine
 10
1536.316511
 20
786.316839
 30
0.0
 11
1536.316511
 21
778.316839
 31
0.0
  0
LINE
  5
B0
100
AcDbEntity
  8
2
  6
CONTINUOUS
 62
     7
100
AcDbLine
 10
1536.316511
 20
778.316839
 30
0.0
 11
1527.316511
 21
778.316839
 31
0.0
  0
LINE
  5
B1
100
AcDbEntity
  8
2
  6
CONTINUOUS
 62
     7
100
AcDbLine
 10
1535.663711
 20
771.317639
 30
0.0
 11
1535.846911
 21
778.317639
 31
0.0
  0
LINE
  5
B2
100
AcDbEntity
  8
2
  6
CONTINUOUS
 62
     7
100
AcDbLine
 10
1534.808511
 20
771.317639
 30
0.0
 11
1534.950911
 21
776.765639
 31
0.0
  0
LINE
  5
B3
100
AcDbEntity
  8
2
  6
CONTINUOUS
 62
     7
100
AcDbLine
 10
1535.846911
 20
778.316839
 30
0.0
 11
1534.950911
 21
776.765639
 31
0.0
  0
LINE
  5
B4
100
AcDbEntity
  8
2
  6
CENTER
 62
     7
100
AcDbLine
 10
1527.316511
 20
822.667239
 30
0.0
 11
1527.316511
 21
771.667239
 31
0.0
  0
LINE
  5
B5
100
AcDbEntity
  8
2
  6
CENTER
 62
     7
100
AcDbLine
 10
1510.690911
 20
743.316839
 30
0.0
 11
1541.034911
 21
743.316839
 31
0.0
  0
LINE
  5
B6
100
AcDbEntity
  8
2
  6
CENTER
 62
     7
100
AcDbLine
 10
1527.316511
 20
775.469639
 30
0.0
 11
1527.316511
 21
675.108039
 31
0.0
  0
LINE
  5
B7
100
AcDbEntity
  8
2
  6
CONTINUOUS
 62
     7
100
AcDbLine
 10
1516.816511
 20
771.316839
 30
0.0
 11
1537.816511
 21
771.316839
 31
0.0
  0
LINE
  5
B8
100
AcDbEntity
  8
2
  6
CONTINUOUS
 62
     7
100
AcDbLine
 10
1516.816511
 20
721.316839
 30
0.0
 11
1518.816511
 21
721.316839
 31
0.0
  0
LINE
  5
B9
100
AcDbEntity
  8
2
  6
CONTINUOUS
 62
     7
100
AcDbLine
 10
1516.816511
 20
771.316839
 30
0.0
 11
1516.816511
 21
721.316839
 31
0.0
  0
LINE
  5
BA
100
AcDbEntity
  8
2
  6
CONTINUOUS
 62
     7
100
AcDbLine
 10
1537.816511
 20
771.316839
 30
0.0
 11
1537.816511
 21
721.316839
 31
0.0
  0
LINE
  5
BB
100
AcDbEntity
  8
2
  6
CONTINUOUS
 62
     7
100
AcDbLine
 10
1535.816511
 20
721.316839
 30
0.0
 11
1537.816511
 21
721.316839
 31
0.0
  0
LINE
  5
BC
100
AcDbEntity
  8
2
  6
CONTINUOUS
 62
     7
100
AcDbLine
 10
1516.816511
 20
745.316839
 30
0.0
 11
1520.608511
 21
745.316839
 31
0.0
  0
LINE
  5
BD
100
AcDbEntity
  8
2
  6
CONTINUOUS
 62
     7
100
AcDbLine
 10
1520.816511
 20
758.316839
 30
0.0
 11
1533.816511
 21
758.316839
 31
0.0
  0
LINE
  5
BE
100
AcDbEntity
  8
2
  6
CONTINUOUS
 62
     7
100
AcDbLine
 10
1526.316511
 20
770.816839
 30
0.0
 11
1526.316511
 21
759.316839
 31
0.0
  0
LINE
  5
BF
100
AcDbEntity
  8
2
  6
CONTINUOUS
 62
     7
100
AcDbLine
 10
1528.316511
 20
770.816839
 30
0.0
 11
1528.316511
 21
759.316839
 31
0.0
  0
LINE
  5
C0
100
AcDbEntity
  8
2
  6
CONTINUOUS
 62
     7
100
AcDbLine
 10
1533.816511
 20
758.316839
 30
0.0
 11
1533.816511
 21
753.816839
 31
0.0
  0
LINE
  5
C1
100
AcDbEntity
  8
2
  6
CONTINUOUS
 62
     7
100
AcDbLine
 10
1526.316511
 20
759.316839
 30
0.0
 11
1528.316511
 21
759.316839
 31
0.0
  0
LINE
  5
C2
100
AcDbEntity
  8
2
  6
CONTINUOUS
 62
     7
100
AcDbLine
 10
1520.816511
 20
758.317639
 30
0.0
 11
1526.316511
 21
759.317639
 31
0.0
  0
LINE
  5
C3
100
AcDbEntity
  8
2
  6
CONTINUOUS
 62
     7
100
AcDbLine
 10
1528.316511
 20
759.317639
 30
0.0
 11
1533.816511
 21
758.317639
 31
0.0
  0
LINE
  5
C4
100
AcDbEntity
  8
2
  6
CONTINUOUS
 62
     7
100
AcDbLine
 10
1517.316511
 20
770.816839
 30
0.0
 11
1517.316511
 21
745.316839
 31
0.0
  0
LINE
  5
C5
100
AcDbEntity
  8
2
  6
CONTINUOUS
 62
     7
100
AcDbLine
 10
1517.316511
 20
736.316839
 30
0.0
 11
1517.316511
 21
721.816839
 31
0.0
  0
LINE
  5
C6
100
AcDbEntity
  8
2
  6
CONTINUOUS
 62
     7
100
AcDbLine
 10
1537.316511
 20
741.316839
 30
0.0
 11
1537.316511
 21
721.816839
 31
0.0
  0
LINE
  5
C7
100
AcDbEntity
  8
2
  6
CONTINUOUS
 62
     7
100
AcDbLine
 10
1537.316511
 20
770.816839
 30
0.0
 11
1537.316511
 21
745.316839
 31
0.0
  0
LINE
  5
C8
100
AcDbEntity
  8
2
  6
CONTINUOUS
 62
     7
100
AcDbLine
 10
1526.316511
 20
770.816839
 30
0.0
 11
1528.316511
 21
770.816839
 31
0.0
  0
LINE
  5
C9
100
AcDbEntity
  8
2
  6
CONTINUOUS
 62
     7
100
AcDbLine
 10
1516.816511
 20
721.816839
 30
0.0
 11
1517.316511
 21
721.816839
 31
0.0
  0
LINE
  5
CA
100
AcDbEntity
  8
2
  6
CONTINUOUS
 62
     7
100
AcDbLine
 10
1517.316511
 20
721.817639
 30
0.0
 11
1518.816511
 21
721.317639
 31
0.0
  0
LINE
  5
CB
100
AcDbEntity
  8
2
  6
CONTINUOUS
 62
     7
100
AcDbLine
 10
1516.816511
 20
770.816839
 30
0.0
 11
1517.316511
 21
770.816839
 31
0.0
  0
LINE
  5
CC
100
AcDbEntity
  8
2
  6
CONTINUOUS
 62
     7
100
AcDbLine
 10
1537.316511
 20
770.816839
 30
0.0
 11
1537.816511
 21
770.816839
 31
0.0
  0
LINE
  5
CD
100
AcDbEntity
  8
2
  6
CONTINUOUS
 62
     7
100
AcDbLine
 10
1537.316511
 20
721.816839
 30
0.0
 11
1537.816511
 21
721.816839
 31
0.0
  0
LINE
  5
CE
100
AcDbEntity
  8
2
  6
CONTINUOUS
 62
     7
100
AcDbLine
 10
1535.816511
 20
721.316839
 30
0.0
 11
1537.316511
 21
721.816839
 31
0.0
  0
LINE
  5
CF
100
AcDbEntity
  8
2
  6
CONTINUOUS
 62
     7
100
AcDbLine
 10
1529.316511
 20
753.816839
 30
0.0
 11
1529.316511
 21
750.317639
 31
0.0
  0
LINE
  5
D0
100
AcDbEntity
  8
2
  6
CONTINUOUS
 62
     7
100
AcDbLine
 10
1527.316511
 20
750.317639
 30
0.0
 11
1529.316511
 21
750.317639
 31
0.0
  0
LINE
  5
D1
100
AcDbEntity
  8
2
  6
CONTINUOUS
 62
     7
100
AcDbLine
 10
1527.316511
 20
681.317639
 30
0.0
 11
1533.316511
 21
684.781639
 31
0.0
  0
LINE
  5
D2
100
AcDbEntity
  8
2
  6
CONTINUOUS
 62
     7
100
AcDbLine
 10
1533.316511
 20
684.781639
 30
0.0
 11
1535.816511
 21
721.317639
 31
0.0
  0
LINE
  5
D3
100
AcDbEntity
  8
2
  6
CONTINUOUS
 62
     7
100
AcDbLine
 10
1521.316511
 20
684.781639
 30
0.0
 11
1518.816511
 21
721.317639
 31
0.0
  0
LINE
  5
D4
100
AcDbEntity
  8
2
  6
CONTINUOUS
 62
     7
100
AcDbLine
 10
1527.316511
 20
681.316839
 30
0.0
 11
1521.316511
 21
684.781639
 31
0.0
  0
LINE
  5
D5
100
AcDbEntity
  8
2
  6
CONTINUOUS
 62
     7
100
AcDbLine
 10
1521.178911
 20
726.317639
 30
0.0
 11
1527.316511
 21
726.317639
 31
0.0
  0
LINE
  5
D6
100
AcDbEntity
  8
2
  6
CONTINUOUS
 62
     7
100
AcDbLine
 10
1521.178911
 20
726.317639
 30
0.0
 11
1520.272511
 21
725.410439
 31
0.0
  0
LINE
  5
D7
100
AcDbEntity
  8
2
  6
CONTINUOUS
 62
     7
100
AcDbLine
 10
1533.454111
 20
726.317639
 30
0.0
 11
1527.316511
 21
726.317639
 31
0.0
  0
LINE
  5
D8
100
AcDbEntity
  8
2
  6
CONTINUOUS
 62
     7
100
AcDbLine
 10
1533.454111
 20
726.317639
 30
0.0
 11
1534.360511
 21
725.410439
 31
0.0
  0
LINE
  5
D9
100
AcDbEntity
  8
2
  6
CONTINUOUS
 62
     7
100
AcDbLine
 10
1525.316511
 20
744.816839
 30
0.0
 11
1525.316511
 21
741.816839
 31
0.0
  0
LINE
  5
DA
100
AcDbEntity
  8
2
  6
CONTINUOUS
 62
     7
100
AcDbLine
 10
1529.316511
 20
744.816839
 30
0.0
 11
1529.316511
 21
741.816839
 31
0.0
  0
LINE
  5
DB
100
AcDbEntity
  8
2
  6
CONTINUOUS
 62
     7
100
AcDbLine
 10
1525.295711
 20
746.816839
 30
0.0
 11
1523.274911
 21
743.316839
 31
0.0
  0
LINE
  5
DC
100
AcDbEntity
  8
2
  6
CONTINUOUS
 62
     7
100
AcDbLine
 10
1523.274911
 20
743.317639
 30
0.0
 11
1525.295711
 21
739.816839
 31
0.0
  0
LINE
  5
DD
100
AcDbEntity
  8
2
  6
CONTINUOUS
 62
     7
100
AcDbLine
 10
1529.337311
 20
739.817639
 30
0.0
 11
1525.295711
 21
739.817639
 31
0.0
  0
LINE
  5
DE
100
AcDbEntity
  8
2
  6
CONTINUOUS
 62
     7
100
AcDbLine
 10
1531.358111
 20
743.316839
 30
0.0
 11
1529.337311
 21
739.816839
 31
0.0
  0
LINE
  5
DF
100
AcDbEntity
  8
2
  6
CONTINUOUS
 62
     7
100
AcDbLine
 10
1529.337311
 20
746.817639
 30
0.0
 11
1531.358111
 21
743.316839
 31
0.0
  0
LINE
  5
E0
100
AcDbEntity
  8
2
  6
CONTINUOUS
 62
     7
100
AcDbLine
 10
1525.295711
 20
746.817639
 30
0.0
 11
1529.337311
 21
746.817639
 31
0.0
  0
LINE
  5
E1
100
AcDbEntity
  8
2
  6
CONTINUOUS
 62
     7
100
AcDbLine
 10
1520.316511
 20
732.316839
 30
0.0
 11
1534.316511
 21
732.316839
 31
0.0
  0
LINE
  5
E2
100
AcDbEntity
  8
2
  6
CONTINUOUS
 62
     7
100
AcDbLine
 10
1534.316511
 20
753.816839
 30
0.0
 11
1534.316511
 21
732.316839
 31
0.0
  0
LINE
  5
E3
100
AcDbEntity
  8
2
  6
CONTINUOUS
 62
     7
100
AcDbLine
 10
1520.316511
 20
743.316839
 30
0.0
 11
1520.316511
 21
741.316839
 31
0.0
  0
LINE
  5
E4
100
AcDbEntity
  8
2
  6
CONTINUOUS
 62
     7
100
AcDbLine
 10
1520.316511
 20
732.316839
 30
0.0
 11
1519.316511
 21
731.316839
 31
0.0
  0
LINE
  5
E5
100
AcDbEntity
  8
2
  6
CONTINUOUS
 62
     7
100
AcDbLine
 10
1534.316511
 20
732.316839
 30
0.0
 11
1535.316511
 21
731.316839
 31
0.0
  0
LINE
  5
E6
100
AcDbEntity
  8
2
  6
CONTINUOUS
 62
     7
100
AcDbLine
 10
1516.816511
 20
741.316839
 30
0.0
 11
1520.316511
 21
741.316839
 31
0.0
  0
LINE
  5
E7
100
AcDbEntity
  8
2
  6
HIDDEN
 62
     7
100
AcDbLine
 10
1529.316511
 20
750.317639
 30
0.0
 11
1534.316511
 21
750.317639
 31
0.0
  0
LINE
  5
E8
100
AcDbEntity
  8
2
  6
CONTINUOUS
 62
     7
100
AcDbLine
 10
1534.316511
 20
741.316839
 30
0.0
 11
1537.816511
 21
741.316839
 31
0.0
  0
LINE
  5
E9
100
AcDbEntity
  8
2
  6
CONTINUOUS
 62
     7
100
AcDbLine
 10
1534.316511
 20
745.316839
 30
0.0
 11
1537.816511
 21
745.316839
 31
0.0
  0
LINE
  5
EA
100
AcDbEntity
  8
2
  6
CONTINUOUS
 62
     7
100
AcDbLine
 10
1516.816511
 20
736.316839
 30
0.0
 11
1520.316511
 21
736.316839
 31
0.0
  0
LINE
  5
EB
100
AcDbEntity
  8
2
  6
CONTINUOUS
 62
     7
100
AcDbLine
 10
1520.316511
 20
736.316839
 30
0.0
 11
1520.316511
 21
732.316839
 31
0.0
  0
LINE
  5
EC
100
AcDbEntity
  8
2
  6
HIDDEN
 62
     7
100
AcDbLine
 10
1520.316511
 20
741.316839
 30
0.0
 11
1520.316511
 21
736.316839
 31
0.0
  0
LINE
  5
ED
100
AcDbEntity
  8
2
  6
CONTINUOUS
 62
     7
100
AcDbLine
 10
1520.816511
 20
758.316839
 30
0.0
 11
1520.816511
 21
745.915239
 31
0.0
  0
LINE
  5
EE
100
AcDbEntity
  8
2
  6
CONTINUOUS
 62
     7
100
AcDbLine
 10
1518.816511
 20
721.317639
 30
0.0
 11
1519.316511
 21
724.152839
 31
0.0
  0
LINE
  5
EF
100
AcDbEntity
  8
2
  6
CONTINUOUS
 62
     7
100
AcDbLine
 10
1519.316511
 20
731.317639
 30
0.0
 11
1519.316511
 21
724.152839
 31
0.0
  0
LINE
  5
F0
100
AcDbEntity
  8
2
  6
CONTINUOUS
 62
     7
100
AcDbLine
 10
1535.316511
 20
731.317639
 30
0.0
 11
1535.316511
 21
724.152839
 31
0.0
  0
LINE
  5
F1
100
AcDbEntity
  8
2
  6
CONTINUOUS
 62
     7
100
AcDbLine
 10
1535.816511
 20
721.317639
 30
0.0
 11
1535.316511
 21
724.152839
 31
0.0
  0
LINE
  5
F2
100
AcDbEntity
  8
2
  6
CONTINUOUS
 62
     7
100
AcDbLine
 10
1529.316511
 20
753.816839
 30
0.0
 11
1534.316511
 21
753.816839
 31
0.0
  0
LINE
  5
F3
100
AcDbEntity
  8
2
  6
CONTINUOUS
 62
     7
100
AcDbLine
 10
1518.316511
 20
783.317639
 30
0.0
 11
1515.316511
 21
786.317639
 31
0.0
  0
LINE
  5
F4
100
AcDbEntity
  8
2
  6
CONTINUOUS
 62
     7
100
AcDbLine
 10
1536.316511
 20
783.317639
 30
0.0
 11
1539.316511
 21
786.317639
 31
0.0
  0
LINE
  5
F5
100
AcDbEntity
  8
2
  6
CONTINUOUS
 62
     7
100
AcDbLine
 10
1918.316511
 20
786.316839
 30
0.0
 11
1918.316511
 21
778.316839
 31
0.0
  0
LINE
  5
F6
100
AcDbEntity
  8
2
  6
CONTINUOUS
 62
     7
100
AcDbLine
 10
1918.316511
 20
778.316839
 30
0.0
 11
1927.316511
 21
778.316839
 31
0.0
  0
LINE
  5
F7
100
AcDbEntity
  8
2
  6
CONTINUOUS
 62
     7
100
AcDbLine
 10
1918.969311
 20
771.316839
 30
0.0
 11
1918.786111
 21
778.316839
 31
0.0
  0
LINE
  5
F8
100
AcDbEntity
  8
2
  6
CONTINUOUS
 62
     7
100
AcDbLine
 10
1919.824511
 20
771.316839
 30
0.0
 11
1919.682111
 21
776.765639
 31
0.0
  0
LINE
  5
F9
100
AcDbEntity
  8
2
  6
CONTINUOUS
 62
     7
100
AcDbLine
 10
1918.786111
 20
778.317639
 30
0.0
 11
1919.682111
 21
776.765639
 31
0.0
  0
LINE
  5
FA
100
AcDbEntity
  8
2
  6
CONTINUOUS
 62
     7
100
AcDbLine
 10
1918.826911
 20
776.765639
 30
0.0
 11
1927.316511
 21
776.765639
 31
0.0
  0
LINE
  5
FB
100
AcDbEntity
  8
2
  6
CONTINUOUS
 62
     7
100
AcDbLine
 10
1935.806111
 20
776.765639
 30
0.0
 11
1927.316511
 21
776.765639
 31
0.0
  0
LINE
  5
FC
100
AcDbEntity
  8
2
  6
CONTINUOUS
 62
     7
100
AcDbLine
 10
1936.316511
 20
786.316839
 30
0.0
 11
1936.316511
 21
778.316839
 31
0.0
  0
LINE
  5
FD
100
AcDbEntity
  8
2
  6
CONTINUOUS
 62
     7
100
AcDbLine
 10
1936.316511
 20
778.316839
 30
0.0
 11
1927.316511
 21
778.316839
 31
0.0
  0
LINE
  5
FE
100
AcDbEntity
  8
2
  6
CONTINUOUS
 62
     7
100
AcDbLine
 10
1935.663711
 20
771.317639
 30
0.0
 11
1935.846911
 21
778.317639
 31
0.0
  0
LINE
  5
FF
100
AcDbEntity
  8
2
  6
CONTINUOUS
 62
     7
100
AcDbLine
 10
1934.808511
 20
771.317639
 30
0.0
 11
1934.950911
 21
776.765639
 31
0.0
  0
LINE
  5
100
100
AcDbEntity
  8
2
  6
CONTINUOUS
 62
     7
100
AcDbLine
 10
1935.846911
 20
778.317639
 30
0.0
 11
1934.950911
 21
776.766439
 31
0.0
  0
LINE
  5
101
100
AcDbEntity
  8
2
  6
CONTINUOUS
 62
     7
100
AcDbLine
 10
1936.316511
 20
783.317639
 30
0.0
 11
1939.316511
 21
786.317639
 31
0.0
  0
LINE
  5
102
100
AcDbEntity
  8
2
  6
CONTINUOUS
 62
     7
100
AcDbLine
 10
1918.316511
 20
783.317639
 30
0.0
 11
1915.316511
 21
786.316839
 31
0.0
  0
LINE
  5
103
100
AcDbEntity
  8
2
  6
CENTER
 62
     7
100
AcDbLine
 10
1927.316511
 20
822.667239
 30
0.0
 11
1927.316511
 21
771.667239
 31
0.0
  0
LINE
  5
104
100
AcDbEntity
  8
2
  6
CENTER
 62
     7
100
AcDbLine
 10
1910.690911
 20
743.316839
 30
0.0
 11
1941.034911
 21
743.316839
 31
0.0
  0
LINE
  5
105
100
AcDbEntity
  8
2
  6
CENTER
 62
     7
100
AcDbLine
 10
1927.316511
 20
775.469639
 30
0.0
 11
1927.316511
 21
675.108039
 31
0.0
  0
LINE
  5
106
100
AcDbEntity
  8
2
  6
CONTINUOUS
 62
     7
100
AcDbLine
 10
1916.816511
 20
771.316839
 30
0.0
 11
1937.816511
 21
771.316839
 31
0.0
  0
LINE
  5
107
100
AcDbEntity
  8
2
  6
CONTINUOUS
 62
     7
100
AcDbLine
 10
1916.816511
 20
721.316839
 30
0.0
 11
1918.816511
 21
721.316839
 31
0.0
  0
LINE
  5
108
100
AcDbEntity
  8
2
  6
CONTINUOUS
 62
     7
100
AcDbLine
 10
1916.816511
 20
771.316839
 30
0.0
 11
1916.816511
 21
721.316839
 31
0.0
  0
LINE
  5
109
100
AcDbEntity
  8
2
  6
CONTINUOUS
 62
     7
100
AcDbLine
 10
1937.816511
 20
771.316839
 30
0.0
 11
1937.816511
 21
721.316839
 31
0.0
  0
LINE
  5
10A
100
AcDbEntity
  8
2
  6
CONTINUOUS
 62
     7
100
AcDbLine
 10
1935.816511
 20
721.316839
 30
0.0
 11
1937.816511
 21
721.316839
 31
0.0
  0
LINE
  5
10B
100
AcDbEntity
  8
2
  6
CONTINUOUS
 62
     7
100
AcDbLine
 10
1916.816511
 20
745.316839
 30
0.0
 11
1920.608511
 21
745.316839
 31
0.0
  0
LINE
  5
10C
100
AcDbEntity
  8
2
  6
CONTINUOUS
 62
     7
100
AcDbLine
 10
1920.816511
 20
758.316839
 30
0.0
 11
1933.816511
 21
758.316839
 31
0.0
  0
LINE
  5
10D
100
AcDbEntity
  8
2
  6
CONTINUOUS
 62
     7
100
AcDbLine
 10
1926.316511
 20
770.816839
 30
0.0
 11
1926.316511
 21
759.316839
 31
0.0
  0
LINE
  5
10E
100
AcDbEntity
  8
2
  6
CONTINUOUS
 62
     7
100
AcDbLine
 10
1928.316511
 20
770.816839
 30
0.0
 11
1928.316511
 21
759.316839
 31
0.0
  0
LINE
  5
10F
100
AcDbEntity
  8
2
  6
CONTINUOUS
 62
     7
100
AcDbLine
 10
1933.816511
 20
758.316839
 30
0.0
 11
1933.816511
 21
753.816839
 31
0.0
  0
LINE
  5
110
100
AcDbEntity
  8
2
  6
CONTINUOUS
 62
     7
100
AcDbLine
 10
1926.316511
 20
759.316839
 30
0.0
 11
1928.316511
 21
759.316839
 31
0.0
  0
LINE
  5
111
100
AcDbEntity
  8
2
  6
CONTINUOUS
 62
     7
100
AcDbLine
 10
1920.816511
 20
758.316839
 30
0.0
 11
1926.316511
 21
759.317639
 31
0.0
  0
LINE
  5
112
100
AcDbEntity
  8
2
  6
CONTINUOUS
 62
     7
100
AcDbLine
 10
1928.316511
 20
759.317639
 30
0.0
 11
1933.816511
 21
758.317639
 31
0.0
  0
LINE
  5
113
100
AcDbEntity
  8
2
  6
CONTINUOUS
 62
     7
100
AcDbLine
 10
1917.316511
 20
770.816839
 30
0.0
 11
1917.316511
 21
745.316839
 31
0.0
  0
LINE
  5
114
100
AcDbEntity
  8
2
  6
CONTINUOUS
 62
     7
100
AcDbLine
 10
1917.316511
 20
736.316839
 30
0.0
 11
1917.316511
 21
721.816839
 31
0.0
  0
LINE
  5
115
100
AcDbEntity
  8
2
  6
CONTINUOUS
 62
     7
100
AcDbLine
 10
1937.316511
 20
741.316839
 30
0.0
 11
1937.316511
 21
721.816839
 31
0.0
  0
LINE
  5
116
100
AcDbEntity
  8
2
  6
CONTINUOUS
 62
     7
100
AcDbLine
 10
1937.316511
 20
770.816839
 30
0.0
 11
1937.316511
 21
745.316839
 31
0.0
  0
LINE
  5
117
100
AcDbEntity
  8
2
  6
CONTINUOUS
 62
     7
100
AcDbLine
 10
1926.316511
 20
770.816839
 30
0.0
 11
1928.316511
 21
770.816839
 31
0.0
  0
LINE
  5
118
100
AcDbEntity
  8
2
  6
CONTINUOUS
 62
     7
100
AcDbLine
 10
1916.816511
 20
721.816839
 30
0.0
 11
1917.316511
 21
721.816839
 31
0.0
  0
LINE
  5
119
100
AcDbEntity
  8
2
  6
CONTINUOUS
 62
     7
100
AcDbLine
 10
1917.316511
 20
721.817639
 30
0.0
 11
1918.816511
 21
721.317639
 31
0.0
  0
LINE
  5
11A
100
AcDbEntity
  8
2
  6
CONTINUOUS
 62
     7
100
AcDbLine
 10
1916.816511
 20
770.816839
 30
0.0
 11
1917.316511
 21
770.816839
 31
0.0
  0
LINE
  5
11B
100
AcDbEntity
  8
2
  6
CONTINUOUS
 62
     7
100
AcDbLine
 10
1937.316511
 20
770.816839
 30
0.0
 11
1937.816511
 21
770.816839
 31
0.0
  0
LINE
  5
11C
100
AcDbEntity
  8
2
  6
CONTINUOUS
 62
     7
100
AcDbLine
 10
1937.316511
 20
721.816839
 30
0.0
 11
1937.816511
 21
721.816839
 31
0.0
  0
LINE
  5
11D
100
AcDbEntity
  8
2
  6
CONTINUOUS
 62
     7
100
AcDbLine
 10
1935.816511
 20
721.317639
 30
0.0
 11
1937.316511
 21
721.817639
 31
0.0
  0
LINE
  5
11E
100
AcDbEntity
  8
2
  6
CONTINUOUS
 62
     7
100
AcDbLine
 10
1929.316511
 20
753.816839
 30
0.0
 11
1929.316511
 21
750.317639
 31
0.0
  0
LINE
  5
11F
100
AcDbEntity
  8
2
  6
CONTINUOUS
 62
     7
100
AcDbLine
 10
1927.316511
 20
750.317639
 30
0.0
 11
1929.316511
 21
750.317639
 31
0.0
  0
LINE
  5
120
100
AcDbEntity
  8
2
  6
CONTINUOUS
 62
     7
100
AcDbLine
 10
1927.316511
 20
681.316839
 30
0.0
 11
1933.316511
 21
684.781639
 31
0.0
  0
LINE
  5
121
100
AcDbEntity
  8
2
  6
CONTINUOUS
 62
     7
100
AcDbLine
 10
1933.316511
 20
684.781639
 30
0.0
 11
1935.816511
 21
721.317639
 31
0.0
  0
LINE
  5
122
100
AcDbEntity
  8
2
  6
CONTINUOUS
 62
     7
100
AcDbLine
 10
1921.316511
 20
684.781639
 30
0.0
 11
1918.816511
 21
721.317639
 31
0.0
  0
LINE
  5
123
100
AcDbEntity
  8
2
  6
CONTINUOUS
 62
     7
100
AcDbLine
 10
1927.316511
 20
681.317639
 30
0.0
 11
1921.316511
 21
684.781639
 31
0.0
  0
LINE
  5
124
100
AcDbEntity
  8
2
  6
CONTINUOUS
 62
     7
100
AcDbLine
 10
1921.178911
 20
726.317639
 30
0.0
 11
1927.316511
 21
726.317639
 31
0.0
  0
LINE
  5
125
100
AcDbEntity
  8
2
  6
CONTINUOUS
 62
     7
100
AcDbLine
 10
1921.178911
 20
726.317639
 30
0.0
 11
1920.272511
 21
725.410439
 31
0.0
  0
LINE
  5
126
100
AcDbEntity
  8
2
  6
CONTINUOUS
 62
     7
100
AcDbLine
 10
1933.454111
 20
726.317639
 30
0.0
 11
1927.316511
 21
726.317639
 31
0.0
  0
LINE
  5
127
100
AcDbEntity
  8
2
  6
CONTINUOUS
 62
     7
100
AcDbLine
 10
1933.454111
 20
726.317639
 30
0.0
 11
1934.360511
 21
725.410439
 31
0.0
  0
LINE
  5
128
100
AcDbEntity
  8
2
  6
CONTINUOUS
 62
     7
100
AcDbLine
 10
1925.316511
 20
744.816839
 30
0.0
 11
1925.316511
 21
741.816839
 31
0.0
  0
LINE
  5
129
100
AcDbEntity
  8
2
  6
CONTINUOUS
 62
     7
100
AcDbLine
 10
1929.316511
 20
744.816839
 30
0.0
 11
1929.316511
 21
741.816839
 31
0.0
  0
LINE
  5
12A
100
AcDbEntity
  8
2
  6
CONTINUOUS
 62
     7
100
AcDbLine
 10
1925.295711
 20
746.816839
 30
0.0
 11
1923.274911
 21
743.316839
 31
0.0
  0
LINE
  5
12B
100
AcDbEntity
  8
2
  6
CONTINUOUS
 62
     7
100
AcDbLine
 10
1923.274911
 20
743.316839
 30
0.0
 11
1925.295711
 21
739.817639
 31
0.0
  0
LINE
  5
12C
100
AcDbEntity
  8
2
  6
CONTINUOUS
 62
     7
100
AcDbLine
 10
1929.337311
 20
739.817639
 30
0.0
 11
1925.295711
 21
739.817639
 31
0.0
  0
LINE
  5
12D
100
AcDbEntity
  8
2
  6
CONTINUOUS
 62
     7
100
AcDbLine
 10
1931.358111
 20
743.316839
 30
0.0
 11
1929.337311
 21
739.816839
 31
0.0
  0
LINE
  5
12E
100
AcDbEntity
  8
2
  6
CONTINUOUS
 62
     7
100
AcDbLine
 10
1929.337311
 20
746.816839
 30
0.0
 11
1931.358111
 21
743.317639
 31
0.0
  0
LINE
  5
12F
100
AcDbEntity
  8
2
  6
CONTINUOUS
 62
     7
100
AcDbLine
 10
1925.295711
 20
746.817639
 30
0.0
 11
1929.337311
 21
746.817639
 31
0.0
  0
LINE
  5
130
100
AcDbEntity
  8
2
  6
CONTINUOUS
 62
     7
100
AcDbLine
 10
1920.316511
 20
732.316839
 30
0.0
 11
1934.316511
 21
732.316839
 31
0.0
  0
LINE
  5
131
100
AcDbEntity
  8
2
  6
CONTINUOUS
 62
     7
100
AcDbLine
 10
1934.316511
 20
753.816839
 30
0.0
 11
1934.316511
 21
732.316839
 31
0.0
  0
LINE
  5
132
100
AcDbEntity
  8
2
  6
CONTINUOUS
 62
     7
100
AcDbLine
 10
1920.316511
 20
743.316839
 30
0.0
 11
1920.316511
 21
741.316839
 31
0.0
  0
LINE
  5
133
100
AcDbEntity
  8
2
  6
CONTINUOUS
 62
     7
100
AcDbLine
 10
1920.316511
 20
732.317639
 30
0.0
 11
1919.316511
 21
731.316839
 31
0.0
  0
LINE
  5
134
100
AcDbEntity
  8
2
  6
CONTINUOUS
 62
     7
100
AcDbLine
 10
1934.316511
 20
732.316839
 30
0.0
 11
1935.316511
 21
731.316839
 31
0.0
  0
LINE
  5
135
100
AcDbEntity
  8
2
  6
CONTINUOUS
 62
     7
100
AcDbLine
 10
1916.816511
 20
741.316839
 30
0.0
 11
1920.316511
 21
741.316839
 31
0.0
  0
LINE
  5
136
100
AcDbEntity
  8
2
  6
HIDDEN
 62
     7
100
AcDbLine
 10
1929.316511
 20
750.317639
 30
0.0
 11
1934.316511
 21
750.317639
 31
0.0
  0
LINE
  5
137
100
AcDbEntity
  8
2
  6
CONTINUOUS
 62
     7
100
AcDbLine
 10
1934.316511
 20
741.316839
 30
0.0
 11
1937.816511
 21
741.316839
 31
0.0
  0
LINE
  5
138
100
AcDbEntity
  8
2
  6
CONTINUOUS
 62
     7
100
AcDbLine
 10
1934.316511
 20
745.316839
 30
0.0
 11
1937.816511
 21
745.316839
 31
0.0
  0
LINE
  5
139
100
AcDbEntity
  8
2
  6
CONTINUOUS
 62
     7
100
AcDbLine
 10
1916.816511
 20
736.316839
 30
0.0
 11
1920.316511
 21
736.316839
 31
0.0
  0
LINE
  5
13A
100
AcDbEntity
  8
2
  6
CONTINUOUS
 62
     7
100
AcDbLine
 10
1920.316511
 20
736.316839
 30
0.0
 11
1920.316511
 21
732.316839
 31
0.0
  0
LINE
  5
13B
100
AcDbEntity
  8
2
  6
HIDDEN
 62
     7
100
AcDbLine
 10
1920.316511
 20
741.316839
 30
0.0
 11
1920.316511
 21
736.316839
 31
0.0
  0
LINE
  5
13C
100
AcDbEntity
  8
2
  6
CONTINUOUS
 62
     7
100
AcDbLine
 10
1920.816511
 20
758.316839
 30
0.0
 11
1920.816511
 21
745.915239
 31
0.0
  0
LINE
  5
13D
100
AcDbEntity
  8
2
  6
CONTINUOUS
 62
     7
100
AcDbLine
 10
1918.816511
 20
721.317639
 30
0.0
 11
1919.316511
 21
724.152839
 31
0.0
  0
LINE
  5
13E
100
AcDbEntity
  8
2
  6
CONTINUOUS
 62
     7
100
AcDbLine
 10
1919.316511
 20
731.317639
 30
0.0
 11
1919.316511
 21
724.152839
 31
0.0
  0
LINE
  5
13F
100
AcDbEntity
  8
2
  6
CONTINUOUS
 62
     7
100
AcDbLine
 10
1935.316511
 20
731.317639
 30
0.0
 11
1935.316511
 21
724.152839
 31
0.0
  0
LINE
  5
140
100
AcDbEntity
  8
2
  6
CONTINUOUS
 62
     7
100
AcDbLine
 10
1935.816511
 20
721.317639
 30
0.0
 11
1935.316511
 21
724.152839
 31
0.0
  0
LINE
  5
141
100
AcDbEntity
  8
2
  6
CONTINUOUS
 62
     7
100
AcDbLine
 10
1929.316511
 20
753.816839
 30
0.0
 11
1934.316511
 21
753.816839
 31
0.0
  0
LINE
  5
142
100
AcDbEntity
  8
2
  6
CONTINUOUS
 62
     7
100
AcDbLine
 10
2318.316511
 20
786.316839
 30
0.0
 11
2318.316511
 21
778.316839
 31
0.0
  0
LINE
  5
143
100
AcDbEntity
  8
2
  6
CONTINUOUS
 62
     7
100
AcDbLine
 10
2318.316511
 20
778.316839
 30
0.0
 11
2327.316511
 21
778.316839
 31
0.0
  0
LINE
  5
144
100
AcDbEntity
  8
2
  6
CONTINUOUS
 62
     7
100
AcDbLine
 10
2318.969311
 20
771.317639
 30
0.0
 11
2318.786111
 21
778.316839
 31
0.0
  0
LINE
  5
145
100
AcDbEntity
  8
2
  6
CONTINUOUS
 62
     7
100
AcDbLine
 10
2319.824511
 20
771.316839
 30
0.0
 11
2319.682111
 21
776.765639
 31
0.0
  0
LINE
  5
146
100
AcDbEntity
  8
2
  6
CONTINUOUS
 62
     7
100
AcDbLine
 10
2318.786111
 20
778.317639
 30
0.0
 11
2319.681311
 21
776.765639
 31
0.0
  0
LINE
  5
147
100
AcDbEntity
  8
2
  6
CONTINUOUS
 62
     7
100
AcDbLine
 10
2318.826911
 20
776.765639
 30
0.0
 11
2327.316511
 21
776.765639
 31
0.0
  0
LINE
  5
148
100
AcDbEntity
  8
2
  6
CONTINUOUS
 62
     7
100
AcDbLine
 10
2335.806111
 20
776.765639
 30
0.0
 11
2327.316511
 21
776.765639
 31
0.0
  0
LINE
  5
149
100
AcDbEntity
  8
2
  6
CONTINUOUS
 62
     7
100
AcDbLine
 10
2336.316511
 20
786.316839
 30
0.0
 11
2336.316511
 21
778.316839
 31
0.0
  0
LINE
  5
14A
100
AcDbEntity
  8
2
  6
CONTINUOUS
 62
     7
100
AcDbLine
 10
2336.316511
 20
778.316839
 30
0.0
 11
2327.316511
 21
778.316839
 31
0.0
  0
LINE
  5
14B
100
AcDbEntity
  8
2
  6
CONTINUOUS
 62
     7
100
AcDbLine
 10
2335.663711
 20
771.317639
 30
0.0
 11
2335.846911
 21
778.316839
 31
0.0
  0
LINE
  5
14C
100
AcDbEntity
  8
2
  6
CONTINUOUS
 62
     7
100
AcDbLine
 10
2334.808511
 20
771.316839
 30
0.0
 11
2334.950911
 21
776.765639
 31
0.0
  0
LINE
  5
14D
100
AcDbEntity
  8
2
  6
CONTINUOUS
 62
     7
100
AcDbLine
 10
2335.846911
 20
778.317639
 30
0.0
 11
2334.950911
 21
776.765639
 31
0.0
  0
LINE
  5
14E
100
AcDbEntity
  8
2
  6
CONTINUOUS
 62
     7
100
AcDbLine
 10
2336.316511
 20
783.316839
 30
0.0
 11
2339.316511
 21
786.316839
 31
0.0
  0
LINE
  5
14F
100
AcDbEntity
  8
2
  6
CONTINUOUS
 62
     7
100
AcDbLine
 10
2318.316511
 20
783.317639
 30
0.0
 11
2315.316511
 21
786.316839
 31
0.0
  0
LINE
  5
150
100
AcDbEntity
  8
2
  6
CENTER
 62
     7
100
AcDbLine
 10
2327.316511
 20
822.667239
 30
0.0
 11
2327.316511
 21
771.667239
 31
0.0
  0
LINE
  5
151
100
AcDbEntity
  8
2
  6
CENTER
 62
     7
100
AcDbLine
 10
2310.690911
 20
743.316839
 30
0.0
 11
2341.034911
 21
743.316839
 31
0.0
  0
LINE
  5
152
100
AcDbEntity
  8
2
  6
CENTER
 62
     7
100
AcDbLine
 10
2327.316511
 20
775.469639
 30
0.0
 11
2327.316511
 21
675.108039
 31
0.0
  0
LINE
  5
153
100
AcDbEntity
  8
2
  6
CONTINUOUS
 62
     7
100
AcDbLine
 10
2316.816511
 20
771.316839
 30
0.0
 11
2337.816511
 21
771.316839
 31
0.0
  0
LINE
  5
154
100
AcDbEntity
  8
2
  6
CONTINUOUS
 62
     7
100
AcDbLine
 10
2316.816511
 20
721.316839
 30
0.0
 11
2318.816511
 21
721.316839
 31
0.0
  0
LINE
  5
155
100
AcDbEntity
  8
2
  6
CONTINUOUS
 62
     7
100
AcDbLine
 10
2316.816511
 20
771.316839
 30
0.0
 11
2316.816511
 21
721.316839
 31
0.0
  0
LINE
  5
156
100
AcDbEntity
  8
2
  6
CONTINUOUS
 62
     7
100
AcDbLine
 10
2337.816511
 20
771.316839
 30
0.0
 11
2337.816511
 21
721.316839
 31
0.0
  0
LINE
  5
157
100
AcDbEntity
  8
2
  6
CONTINUOUS
 62
     7
100
AcDbLine
 10
2335.816511
 20
721.316839
 30
0.0
 11
2337.816511
 21
721.316839
 31
0.0
  0
LINE
  5
158
100
AcDbEntity
  8
2
  6
CONTINUOUS
 62
     7
100
AcDbLine
 10
2316.816511
 20
745.316839
 30
0.0
 11
2320.608511
 21
745.316839
 31
0.0
  0
LINE
  5
159
100
AcDbEntity
  8
2
  6
CONTINUOUS
 62
     7
100
AcDbLine
 10
2320.816511
 20
758.316839
 30
0.0
 11
2333.816511
 21
758.316839
 31
0.0
  0
LINE
  5
15A
100
AcDbEntity
  8
2
  6
CONTINUOUS
 62
     7
100
AcDbLine
 10
2326.316511
 20
770.816839
 30
0.0
 11
2326.316511
 21
759.316839
 31
0.0
  0
LINE
  5
15B
100
AcDbEntity
  8
2
  6
CONTINUOUS
 62
     7
100
AcDbLine
 10
2328.316511
 20
770.816839
 30
0.0
 11
2328.316511
 21
759.316839
 31
0.0
  0
LINE
  5
15C
100
AcDbEntity
  8
2
  6
CONTINUOUS
 62
     7
100
AcDbLine
 10
2333.816511
 20
758.316839
 30
0.0
 11
2333.816511
 21
753.816839
 31
0.0
  0
LINE
  5
15D
100
AcDbEntity
  8
2
  6
CONTINUOUS
 62
     7
100
AcDbLine
 10
2326.316511
 20
759.316839
 30
0.0
 11
2328.316511
 21
759.316839
 31
0.0
  0
LINE
  5
15E
100
AcDbEntity
  8
2
  6
CONTINUOUS
 62
     7
100
AcDbLine
 10
2320.816511
 20
758.317639
 30
0.0
 11
2326.316511
 21
759.317639
 31
0.0
  0
LINE
  5
15F
100
AcDbEntity
  8
2
  6
CONTINUOUS
 62
     7
100
AcDbLine
 10
2328.316511
 20
759.317639
 30
0.0
 11
2333.816511
 21
758.317639
 31
0.0
  0
LINE
  5
160
100
AcDbEntity
  8
2
  6
CONTINUOUS
 62
     7
100
AcDbLine
 10
2317.316511
 20
770.816839
 30
0.0
 11
2317.316511
 21
745.316839
 31
0.0
  0
LINE
  5
161
100
AcDbEntity
  8
2
  6
CONTINUOUS
 62
     7
100
AcDbLine
 10
2317.316511
 20
736.316839
 30
0.0
 11
2317.316511
 21
721.816839
 31
0.0
  0
LINE
  5
162
100
AcDbEntity
  8
2
  6
CONTINUOUS
 62
     7
100
AcDbLine
 10
2337.316511
 20
741.316839
 30
0.0
 11
2337.316511
 21
721.816839
 31
0.0
  0
LINE
  5
163
100
AcDbEntity
  8
2
  6
CONTINUOUS
 62
     7
100
AcDbLine
 10
2337.316511
 20
770.816839
 30
0.0
 11
2337.316511
 21
745.316839
 31
0.0
  0
LINE
  5
164
100
AcDbEntity
  8
2
  6
CONTINUOUS
 62
     7
100
AcDbLine
 10
2326.316511
 20
770.816839
 30
0.0
 11
2328.316511
 21
770.816839
 31
0.0
  0
LINE
  5
165
100
AcDbEntity
  8
2
  6
CONTINUOUS
 62
     7
100
AcDbLine
 10
2316.816511
 20
721.816839
 30
0.0
 11
2317.316511
 21
721.816839
 31
0.0
  0
LINE
  5
166
100
AcDbEntity
  8
2
  6
CONTINUOUS
 62
     7
100
AcDbLine
 10
2317.316511
 20
721.816839
 30
0.0
 11
2318.816511
 21
721.316839
 31
0.0
  0
LINE
  5
167
100
AcDbEntity
  8
2
  6
CONTINUOUS
 62
     7
100
AcDbLine
 10
2316.816511
 20
770.816839
 30
0.0
 11
2317.316511
 21
770.816839
 31
0.0
  0
LINE
  5
168
100
AcDbEntity
  8
2
  6
CONTINUOUS
 62
     7
100
AcDbLine
 10
2337.316511
 20
770.816839
 30
0.0
 11
2337.816511
 21
770.816839
 31
0.0
  0
LINE
  5
169
100
AcDbEntity
  8
2
  6
CONTINUOUS
 62
     7
100
AcDbLine
 10
2337.316511
 20
721.816839
 30
0.0
 11
2337.816511
 21
721.816839
 31
0.0
  0
LINE
  5
16A
100
AcDbEntity
  8
2
  6
CONTINUOUS
 62
     7
100
AcDbLine
 10
2335.816511
 20
721.316839
 30
0.0
 11
2337.316511
 21
721.816839
 31
0.0
  0
LINE
  5
16B
100
AcDbEntity
  8
2
  6
CONTINUOUS
 62
     7
100
AcDbLine
 10
2329.316511
 20
753.816839
 30
0.0
 11
2329.316511
 21
750.317639
 31
0.0
  0
LINE
  5
16C
100
AcDbEntity
  8
2
  6
CONTINUOUS
 62
     7
100
AcDbLine
 10
2327.316511
 20
750.317639
 30
0.0
 11
2329.316511
 21
750.317639
 31
0.0
  0
LINE
  5
16D
100
AcDbEntity
  8
2
  6
CONTINUOUS
 62
     7
100
AcDbLine
 10
2327.316511
 20
681.317639
 30
0.0
 11
2333.316511
 21
684.781639
 31
0.0
  0
LINE
  5
16E
100
AcDbEntity
  8
2
  6
CONTINUOUS
 62
     7
100
AcDbLine
 10
2333.316511
 20
684.781639
 30
0.0
 11
2335.816511
 21
721.317639
 31
0.0
  0
LINE
  5
16F
100
AcDbEntity
  8
2
  6
CONTINUOUS
 62
     7
100
AcDbLine
 10
2321.316511
 20
684.781639
 30
0.0
 11
2318.816511
 21
721.316839
 31
0.0
  0
LINE
  5
170
100
AcDbEntity
  8
2
  6
CONTINUOUS
 62
     7
100
AcDbLine
 10
2327.316511
 20
681.316839
 30
0.0
 11
2321.316511
 21
684.781639
 31
0.0
  0
LINE
  5
171
100
AcDbEntity
  8
2
  6
CONTINUOUS
 62
     7
100
AcDbLine
 10
2321.178911
 20
726.317639
 30
0.0
 11
2327.316511
 21
726.317639
 31
0.0
  0
LINE
  5
172
100
AcDbEntity
  8
2
  6
CONTINUOUS
 62
     7
100
AcDbLine
 10
2321.178911
 20
726.317639
 30
0.0
 11
2320.272511
 21
725.410439
 31
0.0
  0
LINE
  5
173
100
AcDbEntity
  8
2
  6
CONTINUOUS
 62
     7
100
AcDbLine
 10
2333.454111
 20
726.317639
 30
0.0
 11
2327.316511
 21
726.317639
 31
0.0
  0
LINE
  5
174
100
AcDbEntity
  8
2
  6
CONTINUOUS
 62
     7
100
AcDbLine
 10
2333.454111
 20
726.317639
 30
0.0
 11
2334.360511
 21
725.410439
 31
0.0
  0
LINE
  5
175
100
AcDbEntity
  8
2
  6
CONTINUOUS
 62
     7
100
AcDbLine
 10
2325.316511
 20
744.816839
 30
0.0
 11
2325.316511
 21
741.816839
 31
0.0
  0
LINE
  5
176
100
AcDbEntity
  8
2
  6
CONTINUOUS
 62
     7
100
AcDbLine
 10
2329.316511
 20
744.816839
 30
0.0
 11
2329.316511
 21
741.816839
 31
0.0
  0
LINE
  5
177
100
AcDbEntity
  8
2
  6
CONTINUOUS
 62
     7
100
AcDbLine
 10
2325.295711
 20
746.816839
 30
0.0
 11
2323.274911
 21
743.316839
 31
0.0
  0
LINE
  5
178
100
AcDbEntity
  8
2
  6
CONTINUOUS
 62
     7
100
AcDbLine
 10
2323.274911
 20
743.316839
 30
0.0
 11
2325.295711
 21
739.816839
 31
0.0
  0
LINE
  5
179
100
AcDbEntity
  8
2
  6
CONTINUOUS
 62
     7
100
AcDbLine
 10
2329.337311
 20
739.817639
 30
0.0
 11
2325.295711
 21
739.817639
 31
0.0
  0
LINE
  5
17A
100
AcDbEntity
  8
2
  6
CONTINUOUS
 62
     7
100
AcDbLine
 10
2331.358111
 20
743.316839
 30
0.0
 11
2329.337311
 21
739.816839
 31
0.0
  0
LINE
  5
17B
100
AcDbEntity
  8
2
  6
CONTINUOUS
 62
     7
100
AcDbLine
 10
2329.337311
 20
746.816839
 30
0.0
 11
2331.358111
 21
743.316839
 31
0.0
  0
LINE
  5
17C
100
AcDbEntity
  8
2
  6
CONTINUOUS
 62
     7
100
AcDbLine
 10
2325.295711
 20
746.817639
 30
0.0
 11
2329.337311
 21
746.817639
 31
0.0
  0
LINE
  5
17D
100
AcDbEntity
  8
2
  6
CONTINUOUS
 62
     7
100
AcDbLine
 10
2320.316511
 20
732.316839
 30
0.0
 11
2334.316511
 21
732.316839
 31
0.0
  0
LINE
  5
17E
100
AcDbEntity
  8
2
  6
CONTINUOUS
 62
     7
100
AcDbLine
 10
2334.316511
 20
753.816839
 30
0.0
 11
2334.316511
 21
732.316839
 31
0.0
  0
LINE
  5
17F
100
AcDbEntity
  8
2
  6
CONTINUOUS
 62
     7
100
AcDbLine
 10
2320.316511
 20
743.316839
 30
0.0
 11
2320.316511
 21
741.316839
 31
0.0
  0
LINE
  5
180
100
AcDbEntity
  8
2
  6
CONTINUOUS
 62
     7
100
AcDbLine
 10
2320.316511
 20
732.317639
 30
0.0
 11
2319.316511
 21
731.316839
 31
0.0
  0
LINE
  5
181
100
AcDbEntity
  8
2
  6
CONTINUOUS
 62
     7
100
AcDbLine
 10
2334.316511
 20
732.316839
 30
0.0
 11
2335.316511
 21
731.316839
 31
0.0
  0
LINE
  5
182
100
AcDbEntity
  8
2
  6
CONTINUOUS
 62
     7
100
AcDbLine
 10
2316.816511
 20
741.316839
 30
0.0
 11
2320.316511
 21
741.316839
 31
0.0
  0
LINE
  5
183
100
AcDbEntity
  8
2
  6
HIDDEN
 62
     7
100
AcDbLine
 10
2329.316511
 20
750.317639
 30
0.0
 11
2334.316511
 21
750.317639
 31
0.0
  0
LINE
  5
184
100
AcDbEntity
  8
2
  6
CONTINUOUS
 62
     7
100
AcDbLine
 10
2334.316511
 20
741.316839
 30
0.0
 11
2337.816511
 21
741.316839
 31
0.0
  0
LINE
  5
185
100
AcDbEntity
  8
2
  6
CONTINUOUS
 62
     7
100
AcDbLine
 10
2334.316511
 20
745.316839
 30
0.0
 11
2337.816511
 21
745.316839
 31
0.0
  0
LINE
  5
186
100
AcDbEntity
  8
2
  6
CONTINUOUS
 62
     7
100
AcDbLine
 10
2316.816511
 20
736.316839
 30
0.0
 11
2320.316511
 21
736.316839
 31
0.0
  0
LINE
  5
187
100
AcDbEntity
  8
2
  6
CONTINUOUS
 62
     7
100
AcDbLine
 10
2320.316511
 20
736.316839
 30
0.0
 11
2320.316511
 21
732.316839
 31
0.0
  0
LINE
  5
188
100
AcDbEntity
  8
2
  6
HIDDEN
 62
     7
100
AcDbLine
 10
2320.316511
 20
741.316839
 30
0.0
 11
2320.316511
 21
736.316839
 31
0.0
  0
LINE
  5
189
100
AcDbEntity
  8
2
  6
CONTINUOUS
 62
     7
100
AcDbLine
 10
2320.816511
 20
758.316839
 30
0.0
 11
2320.816511
 21
745.915239
 31
0.0
  0
LINE
  5
18A
100
AcDbEntity
  8
2
  6
CONTINUOUS
 62
     7
100
AcDbLine
 10
2318.816511
 20
721.317639
 30
0.0
 11
2319.316511
 21
724.152839
 31
0.0
  0
LINE
  5
18B
100
AcDbEntity
  8
2
  6
CONTINUOUS
 62
     7
100
AcDbLine
 10
2319.316511
 20
731.317639
 30
0.0
 11
2319.316511
 21
724.152839
 31
0.0
  0
LINE
  5
18C
100
AcDbEntity
  8
2
  6
CONTINUOUS
 62
     7
100
AcDbLine
 10
2335.316511
 20
731.317639
 30
0.0
 11
2335.316511
 21
724.152839
 31
0.0
  0
LINE
  5
18D
100
AcDbEntity
  8
2
  6
CONTINUOUS
 62
     7
100
AcDbLine
 10
2335.816511
 20
721.316839
 30
0.0
 11
2335.316511
 21
724.152839
 31
0.0
  0
LINE
  5
18E
100
AcDbEntity
  8
2
  6
CONTINUOUS
 62
     7
100
AcDbLine
 10
2329.316511
 20
753.816839
 30
0.0
 11
2334.316511
 21
753.816839
 31
0.0
  0
LINE
  5
18F
100
AcDbEntity
  8
2
  6
CONTINUOUS
 62
     7
100
AcDbLine
 10
1718.316511
 20
808.017639
 30
0.0
 11
1723.316511
 21
808.017639
 31
0.0
  0
LINE
  5
190
100
AcDbEntity
  8
2
  6
CONTINUOUS
 62
     7
100
AcDbLine
 10
1736.702911
 20
1144.667239
 30
0.0
 11
1736.702911
 21
1049.667239
 31
0.0
  0
LINE
  5
191
100
AcDbEntity
  8
2
  6
CENTER
 62
     7
100
AcDbLine
 10
1761.519711
 20
1097.167239
 30
0.0
 11
1536.702911
 21
1097.167239
 31
0.0
  0
LINE
  5
192
100
AcDbEntity
  8
2
  6
CONTINUOUS
 62
     7
100
AcDbLine
 10
1736.702911
 20
1071.667239
 30
0.0
 11
1735.702911
 21
1071.667239
 31
0.0
  0
LINE
  5
193
100
AcDbEntity
  8
2
  6
CONTINUOUS
 62
     7
100
AcDbLine
 10
1736.702911
 20
1122.667239
 30
0.0
 11
1735.702911
 21
1122.667239
 31
0.0
  0
LINE
  5
194
100
AcDbEntity
  8
2
  6
CONTINUOUS
 62
     7
100
AcDbLine
 10
1733.702911
 20
1144.667239
 30
0.0
 11
1724.702911
 21
1144.667239
 31
0.0
  0
LINE
  5
195
100
AcDbEntity
  8
2
  6
CONTINUOUS
 62
     7
100
AcDbLine
 10
1733.702911
 20
1049.667239
 30
0.0
 11
1724.702911
 21
1049.667239
 31
0.0
  0
LINE
  5
196
100
AcDbEntity
  8
2
  6
CONTINUOUS
 62
     7
100
AcDbLine
 10
1718.702911
 20
1115.016839
 30
0.0
 11
1716.702911
 21
1115.016839
 31
0.0
  0
LINE
  5
197
100
AcDbEntity
  8
2
  6
CONTINUOUS
 62
     7
100
AcDbLine
 10
1716.702911
 20
1113.016839
 30
0.0
 11
1711.702911
 21
1108.016839
 31
0.0
  0
LINE
  5
198
100
AcDbEntity
  8
2
  6
CONTINUOUS
 62
     7
100
AcDbLine
 10
1722.702911
 20
1051.667239
 30
0.0
 11
1722.702911
 21
1097.167239
 31
0.0
  0
LINE
  5
199
100
AcDbEntity
  8
2
  6
CONTINUOUS
 62
     7
100
AcDbLine
 10
1718.702911
 20
1079.317639
 30
0.0
 11
1716.702911
 21
1079.317639
 31
0.0
  0
LINE
  5
19A
100
AcDbEntity
  8
2
  6
CONTINUOUS
 62
     7
100
AcDbLine
 10
1716.702911
 20
1079.317639
 30
0.0
 11
1716.702911
 21
1097.167239
 31
0.0
  0
LINE
  5
19B
100
AcDbEntity
  8
2
  6
CONTINUOUS
 62
     7
100
AcDbLine
 10
1716.702911
 20
1081.316839
 30
0.0
 11
1711.702911
 21
1086.316839
 31
0.0
  0
LINE
  5
19C
100
AcDbEntity
  8
2
  6
CONTINUOUS
 62
     7
100
AcDbLine
 10
1711.702911
 20
1097.167239
 30
0.0
 11
1711.702911
 21
1086.317639
 31
0.0
  0
LINE
  5
19D
100
AcDbEntity
  8
2
  6
CONTINUOUS
 62
     7
100
AcDbLine
 10
1735.702911
 20
1097.167239
 30
0.0
 11
1735.702911
 21
1051.667239
 31
0.0
  0
LINE
  5
19E
100
AcDbEntity
  8
2
  6
CONTINUOUS
 62
     7
100
AcDbLine
 10
1711.702911
 20
1086.317639
 30
0.0
 11
1545.702911
 21
1086.317639
 31
0.0
  0
LINE
  5
19F
100
AcDbEntity
  8
2
  6
CENTER
 62
     7
100
AcDbLine
 10
136.702911
 20
1122.667239
 30
0.0
 11
136.702911
 21
1071.667239
 31
0.0
  0
LINE
  5
1A0
100
AcDbEntity
  8
2
  6
CONTINUOUS
 62
     7
100
AcDbLine
 10
137.702911
 20
1070.817639
 30
0.0
 11
137.702911
 21
1059.317639
 31
0.0
  0
LINE
  5
1A1
100
AcDbEntity
  8
2
  6
CONTINUOUS
 62
     7
100
AcDbLine
 10
136.702911
 20
1122.667239
 30
0.0
 11
136.702911
 21
1071.667239
 31
0.0
  0
LINE
  5
1A2
100
AcDbEntity
  8
2
  6
CENTER
 62
     7
100
AcDbLine
 10
136.246111
 20
1097.167239
 30
0.0
 11
1536.702911
 21
1097.167239
 31
0.0
  0
LINE
  5
1A3
100
AcDbEntity
  8
2
  6
CONTINUOUS
 62
     7
100
AcDbLine
 10
136.702911
 20
1071.667239
 30
0.0
 11
137.702911
 21
1071.667239
 31
0.0
  0
LINE
  5
1A4
100
AcDbEntity
  8
2
  6
CONTINUOUS
 62
     7
100
AcDbLine
 10
136.702911
 20
1122.667239
 30
0.0
 11
137.702911
 21
1122.667239
 31
0.0
  0
LINE
  5
1A5
100
AcDbEntity
  8
2
  6
CONTINUOUS
 62
     7
100
AcDbLine
 10
139.702911
 20
1144.667239
 30
0.0
 11
148.702911
 21
1144.667239
 31
0.0
  0
LINE
  5
1A6
100
AcDbEntity
  8
2
  6
CONTINUOUS
 62
     7
100
AcDbLine
 10
139.702911
 20
1049.667239
 30
0.0
 11
148.702911
 21
1049.667239
 31
0.0
  0
LINE
  5
1A7
100
AcDbEntity
  8
2
  6
CONTINUOUS
 62
     7
100
AcDbLine
 10
154.702911
 20
1115.016839
 30
0.0
 11
156.702911
 21
1115.016839
 31
0.0
  0
LINE
  5
1A8
100
AcDbEntity
  8
2
  6
CONTINUOUS
 62
     7
100
AcDbLine
 10
156.702911
 20
1113.017639
 30
0.0
 11
161.702911
 21
1108.016839
 31
0.0
  0
LINE
  5
1A9
100
AcDbEntity
  8
2
  6
CONTINUOUS
 62
     7
100
AcDbLine
 10
150.702911
 20
1051.667239
 30
0.0
 11
150.702911
 21
1097.167239
 31
0.0
  0
LINE
  5
1AA
100
AcDbEntity
  8
2
  6
CONTINUOUS
 62
     7
100
AcDbLine
 10
154.702911
 20
1079.317639
 30
0.0
 11
156.702911
 21
1079.317639
 31
0.0
  0
LINE
  5
1AB
100
AcDbEntity
  8
2
  6
CONTINUOUS
 62
     7
100
AcDbLine
 10
156.702911
 20
1079.317639
 30
0.0
 11
156.702911
 21
1097.167239
 31
0.0
  0
LINE
  5
1AC
100
AcDbEntity
  8
2
  6
CONTINUOUS
 62
     7
100
AcDbLine
 10
156.702911
 20
1081.316839
 30
0.0
 11
161.702911
 21
1086.317639
 31
0.0
  0
LINE
  5
1AD
100
AcDbEntity
  8
2
  6
CONTINUOUS
 62
     7
100
AcDbLine
 10
161.702911
 20
1097.167239
 30
0.0
 11
161.702911
 21
1086.317639
 31
0.0
  0
LINE
  5
1AE
100
AcDbEntity
  8
2
  6
CONTINUOUS
 62
     7
100
AcDbLine
 10
137.702911
 20
1097.167239
 30
0.0
 11
137.702911
 21
1051.667239
 31
0.0
  0
LINE
  5
1AF
100
AcDbEntity
  8
2
  6
CONTINUOUS
 62
     7
100
AcDbLine
 10
345.702911
 20
1086.317639
 30
0.0
 11
345.702911
 21
1078.317639
 31
0.0
  0
LINE
  5
1B0
100
AcDbEntity
  8
2
  6
CONTINUOUS
 62
     7
100
AcDbLine
 10
345.702911
 20
1078.317639
 30
0.0
 11
336.702911
 21
1078.317639
 31
0.0
  0
LINE
  5
1B1
100
AcDbEntity
  8
2
  6
CONTINUOUS
 62
     7
100
AcDbLine
 10
345.050111
 20
1071.317639
 30
0.0
 11
345.233311
 21
1078.317639
 31
0.0
  0
LINE
  5
1B2
100
AcDbEntity
  8
2
  6
CONTINUOUS
 62
     7
100
AcDbLine
 10
344.194911
 20
1071.317639
 30
0.0
 11
344.338111
 21
1076.765639
 31
0.0
  0
LINE
  5
1B3
100
AcDbEntity
  8
2
  6
CONTINUOUS
 62
     7
100
AcDbLine
 10
345.233311
 20
1078.317639
 30
0.0
 11
344.337311
 21
1076.765639
 31
0.0
  0
LINE
  5
1B4
100
AcDbEntity
  8
2
  6
CONTINUOUS
 62
     7
100
AcDbLine
 10
345.192511
 20
1076.765639
 30
0.0
 11
336.702911
 21
1076.765639
 31
0.0
  0
LINE
  5
1B5
100
AcDbEntity
  8
2
  6
CONTINUOUS
 62
     7
100
AcDbLine
 10
328.213311
 20
1076.765639
 30
0.0
 11
336.702911
 21
1076.765639
 31
0.0
  0
LINE
  5
1B6
100
AcDbEntity
  8
2
  6
CONTINUOUS
 62
     7
100
AcDbLine
 10
327.702911
 20
1086.317639
 30
0.0
 11
327.702911
 21
1078.317639
 31
0.0
  0
LINE
  5
1B7
100
AcDbEntity
  8
2
  6
CONTINUOUS
 62
     7
100
AcDbLine
 10
327.702911
 20
1078.317639
 30
0.0
 11
336.702911
 21
1078.317639
 31
0.0
  0
LINE
  5
1B8
100
AcDbEntity
  8
2
  6
CONTINUOUS
 62
     7
100
AcDbLine
 10
328.355711
 20
1071.316839
 30
0.0
 11
328.172511
 21
1078.316839
 31
0.0
  0
LINE
  5
1B9
100
AcDbEntity
  8
2
  6
CONTINUOUS
 62
     7
100
AcDbLine
 10
329.210911
 20
1071.316839
 30
0.0
 11
329.068511
 21
1076.765639
 31
0.0
  0
LINE
  5
1BA
100
AcDbEntity
  8
2
  6
CONTINUOUS
 62
     7
100
AcDbLine
 10
328.172511
 20
1078.317639
 30
0.0
 11
329.068511
 21
1076.765639
 31
0.0
  0
LINE
  5
1BB
100
AcDbEntity
  8
2
  6
CONTINUOUS
 62
     7
100
AcDbLine
 10
327.702911
 20
1083.316839
 30
0.0
 11
324.702911
 21
1086.317639
 31
0.0
  0
LINE
  5
1BC
100
AcDbEntity
  8
2
  6
CONTINUOUS
 62
     7
100
AcDbLine
 10
345.702911
 20
1083.317639
 30
0.0
 11
348.702911
 21
1086.316839
 31
0.0
  0
LINE
  5
1BD
100
AcDbEntity
  8
2
  6
CENTER
 62
     7
100
AcDbLine
 10
236.702911
 20
1122.667239
 30
0.0
 11
236.702911
 21
1071.667239
 31
0.0
  0
LINE
  5
1BE
100
AcDbEntity
  8
2
  6
CENTER
 62
     7
100
AcDbLine
 10
353.328511
 20
1043.317639
 30
0.0
 11
322.983711
 21
1043.317639
 31
0.0
  0
LINE
  5
1BF
100
AcDbEntity
  8
2
  6
CENTER
 62
     7
100
AcDbLine
 10
336.702911
 20
1115.744839
 30
0.0
 11
336.702911
 21
975.108039
 31
0.0
  0
LINE
  5
1C0
100
AcDbEntity
  8
2
  6
CONTINUOUS
 62
     7
100
AcDbLine
 10
347.202911
 20
1071.317639
 30
0.0
 11
326.202911
 21
1071.317639
 31
0.0
  0
LINE
  5
1C1
100
AcDbEntity
  8
2
  6
CONTINUOUS
 62
     7
100
AcDbLine
 10
347.202911
 20
1021.317639
 30
0.0
 11
345.202911
 21
1021.317639
 31
0.0
  0
LINE
  5
1C2
100
AcDbEntity
  8
2
  6
CONTINUOUS
 62
     7
100
AcDbLine
 10
347.202911
 20
1071.317639
 30
0.0
 11
347.202911
 21
1021.317639
 31
0.0
  0
LINE
  5
1C3
100
AcDbEntity
  8
2
  6
CONTINUOUS
 62
     7
100
AcDbLine
 10
326.202911
 20
1071.317639
 30
0.0
 11
326.202911
 21
1021.317639
 31
0.0
  0
LINE
  5
1C4
100
AcDbEntity
  8
2
  6
CONTINUOUS
 62
     7
100
AcDbLine
 10
328.202911
 20
1021.317639
 30
0.0
 11
326.202911
 21
1021.317639
 31
0.0
  0
LINE
  5
1C5
100
AcDbEntity
  8
2
  6
CONTINUOUS
 62
     7
100
AcDbLine
 10
347.202911
 20
1045.317639
 30
0.0
 11
343.702911
 21
1045.317639
 31
0.0
  0
LINE
  5
1C6
100
AcDbEntity
  8
2
  6
CONTINUOUS
 62
     7
100
AcDbLine
 10
343.202911
 20
1058.317639
 30
0.0
 11
330.202911
 21
1058.317639
 31
0.0
  0
LINE
  5
1C7
100
AcDbEntity
  8
2
  6
CONTINUOUS
 62
     7
100
AcDbLine
 10
337.702911
 20
1070.817639
 30
0.0
 11
337.702911
 21
1059.317639
 31
0.0
  0
LINE
  5
1C8
100
AcDbEntity
  8
2
  6
CONTINUOUS
 62
     7
100
AcDbLine
 10
335.702911
 20
1070.817639
 30
0.0
 11
335.702911
 21
1059.317639
 31
0.0
  0
LINE
  5
1C9
100
AcDbEntity
  8
2
  6
CONTINUOUS
 62
     7
100
AcDbLine
 10
330.202911
 20
1058.317639
 30
0.0
 11
330.202911
 21
1045.916039
 31
0.0
  0
LINE
  5
1CA
100
AcDbEntity
  8
2
  6
CONTINUOUS
 62
     7
100
AcDbLine
 10
337.702911
 20
1059.317639
 30
0.0
 11
335.702911
 21
1059.317639
 31
0.0
  0
LINE
  5
1CB
100
AcDbEntity
  8
2
  6
CONTINUOUS
 62
     7
100
AcDbLine
 10
343.202911
 20
1058.317639
 30
0.0
 11
337.702911
 21
1059.316839
 31
0.0
  0
LINE
  5
1CC
100
AcDbEntity
  8
2
  6
CONTINUOUS
 62
     7
100
AcDbLine
 10
335.702911
 20
1059.316839
 30
0.0
 11
330.202911
 21
1058.317639
 31
0.0
  0
LINE
  5
1CD
100
AcDbEntity
  8
2
  6
CONTINUOUS
 62
     7
100
AcDbLine
 10
346.702911
 20
1070.817639
 30
0.0
 11
346.702911
 21
1045.317639
 31
0.0
  0
LINE
  5
1CE
100
AcDbEntity
  8
2
  6
CONTINUOUS
 62
     7
100
AcDbLine
 10
346.702911
 20
1036.317639
 30
0.0
 11
346.702911
 21
1021.817639
 31
0.0
  0
LINE
  5
1CF
100
AcDbEntity
  8
2
  6
CONTINUOUS
 62
     7
100
AcDbLine
 10
326.702911
 20
1041.317639
 30
0.0
 11
326.702911
 21
1021.817639
 31
0.0
  0
LINE
  5
1D0
100
AcDbEntity
  8
2
  6
CONTINUOUS
 62
     7
100
AcDbLine
 10
326.702911
 20
1070.817639
 30
0.0
 11
326.702911
 21
1045.317639
 31
0.0
  0
LINE
  5
1D1
100
AcDbEntity
  8
2
  6
CONTINUOUS
 62
     7
100
AcDbLine
 10
337.702911
 20
1070.817639
 30
0.0
 11
335.702911
 21
1070.817639
 31
0.0
  0
LINE
  5
1D2
100
AcDbEntity
  8
2
  6
CONTINUOUS
 62
     7
100
AcDbLine
 10
347.202911
 20
1021.817639
 30
0.0
 11
346.702911
 21
1021.817639
 31
0.0
  0
LINE
  5
1D3
100
AcDbEntity
  8
2
  6
CONTINUOUS
 62
     7
100
AcDbLine
 10
346.702911
 20
1021.816839
 30
0.0
 11
345.202911
 21
1021.316839
 31
0.0
  0
LINE
  5
1D4
100
AcDbEntity
  8
2
  6
CONTINUOUS
 62
     7
100
AcDbLine
 10
347.202911
 20
1070.817639
 30
0.0
 11
346.702911
 21
1070.817639
 31
0.0
  0
LINE
  5
1D5
100
AcDbEntity
  8
2
  6
CONTINUOUS
 62
     7
100
AcDbLine
 10
326.702911
 20
1070.817639
 30
0.0
 11
326.202911
 21
1070.817639
 31
0.0
  0
LINE
  5
1D6
100
AcDbEntity
  8
2
  6
CONTINUOUS
 62
     7
100
AcDbLine
 10
326.702911
 20
1021.817639
 30
0.0
 11
326.202911
 21
1021.817639
 31
0.0
  0
LINE
  5
1D7
100
AcDbEntity
  8
2
  6
CONTINUOUS
 62
     7
100
AcDbLine
 10
328.202911
 20
1021.317639
 30
0.0
 11
326.702911
 21
1021.816839
 31
0.0
  0
LINE
  5
1D8
100
AcDbEntity
  8
2
  6
CONTINUOUS
 62
     7
100
AcDbLine
 10
336.702911
 20
981.317639
 30
0.0
 11
330.702911
 21
984.781639
 31
0.0
  0
LINE
  5
1D9
100
AcDbEntity
  8
2
  6
CONTINUOUS
 62
     7
100
AcDbLine
 10
330.702911
 20
984.781639
 30
0.0
 11
328.202911
 21
1021.317639
 31
0.0
  0
LINE
  5
1DA
100
AcDbEntity
  8
2
  6
CONTINUOUS
 62
     7
100
AcDbLine
 10
342.702911
 20
984.781639
 30
0.0
 11
345.202911
 21
1021.316839
 31
0.0
  0
LINE
  5
1DB
100
AcDbEntity
  8
2
  6
CONTINUOUS
 62
     7
100
AcDbLine
 10
336.702911
 20
981.317639
 30
0.0
 11
342.702911
 21
984.781639
 31
0.0
  0
LINE
  5
1DC
100
AcDbEntity
  8
2
  6
CONTINUOUS
 62
     7
100
AcDbLine
 10
342.840511
 20
1026.317639
 30
0.0
 11
336.702911
 21
1026.317639
 31
0.0
  0
LINE
  5
1DD
100
AcDbEntity
  8
2
  6
CONTINUOUS
 62
     7
100
AcDbLine
 10
342.840511
 20
1026.316839
 30
0.0
 11
343.746911
 21
1025.410439
 31
0.0
  0
LINE
  5
1DE
100
AcDbEntity
  8
2
  6
CONTINUOUS
 62
     7
100
AcDbLine
 10
330.565311
 20
1026.317639
 30
0.0
 11
336.702911
 21
1026.317639
 31
0.0
  0
LINE
  5
1DF
100
AcDbEntity
  8
2
  6
CONTINUOUS
 62
     7
100
AcDbLine
 10
330.565311
 20
1026.317639
 30
0.0
 11
329.658911
 21
1025.410439
 31
0.0
  0
LINE
  5
1E0
100
AcDbEntity
  8
2
  6
CONTINUOUS
 62
     7
100
AcDbLine
 10
338.702911
 20
1044.816839
 30
0.0
 11
338.702911
 21
1041.817639
 31
0.0
  0
LINE
  5
1E1
100
AcDbEntity
  8
2
  6
CONTINUOUS
 62
     7
100
AcDbLine
 10
334.702911
 20
1044.816839
 30
0.0
 11
334.702911
 21
1041.817639
 31
0.0
  0
LINE
  5
1E2
100
AcDbEntity
  8
2
  6
CONTINUOUS
 62
     7
100
AcDbLine
 10
338.723711
 20
1046.816839
 30
0.0
 11
340.744511
 21
1043.317639
 31
0.0
  0
LINE
  5
1E3
100
AcDbEntity
  8
2
  6
CONTINUOUS
 62
     7
100
AcDbLine
 10
340.744511
 20
1043.316839
 30
0.0
 11
338.723711
 21
1039.816839
 31
0.0
  0
LINE
  5
1E4
100
AcDbEntity
  8
2
  6
CONTINUOUS
 62
     7
100
AcDbLine
 10
334.682111
 20
1039.817639
 30
0.0
 11
338.723711
 21
1039.817639
 31
0.0
  0
LINE
  5
1E5
100
AcDbEntity
  8
2
  6
CONTINUOUS
 62
     7
100
AcDbLine
 10
332.661311
 20
1043.316839
 30
0.0
 11
334.682111
 21
1039.817639
 31
0.0
  0
LINE
  5
1E6
100
AcDbEntity
  8
2
  6
CONTINUOUS
 62
     7
100
AcDbLine
 10
334.682111
 20
1046.816839
 30
0.0
 11
332.661311
 21
1043.316839
 31
0.0
  0
LINE
  5
1E7
100
AcDbEntity
  8
2
  6
CONTINUOUS
 62
     7
100
AcDbLine
 10
338.723711
 20
1046.817639
 30
0.0
 11
334.682111
 21
1046.817639
 31
0.0
  0
LINE
  5
1E8
100
AcDbEntity
  8
2
  6
CONTINUOUS
 62
     7
100
AcDbLine
 10
343.702911
 20
1032.317639
 30
0.0
 11
329.702911
 21
1032.317639
 31
0.0
  0
LINE
  5
1E9
100
AcDbEntity
  8
2
  6
CONTINUOUS
 62
     7
100
AcDbLine
 10
343.702911
 20
1032.317639
 30
0.0
 11
344.702911
 21
1031.317639
 31
0.0
  0
LINE
  5
1EA
100
AcDbEntity
  8
2
  6
CONTINUOUS
 62
     7
100
AcDbLine
 10
329.702911
 20
1032.316839
 30
0.0
 11
328.702911
 21
1031.317639
 31
0.0
  0
LINE
  5
1EB
100
AcDbEntity
  8
2
  6
CONTINUOUS
 62
     7
100
AcDbLine
 10
347.202911
 20
1041.317639
 30
0.0
 11
343.702911
 21
1041.317639
 31
0.0
  0
LINE
  5
1EC
100
AcDbEntity
  8
2
  6
CONTINUOUS
 62
     7
100
AcDbLine
 10
329.702911
 20
1041.317639
 30
0.0
 11
326.202911
 21
1041.317639
 31
0.0
  0
LINE
  5
1ED
100
AcDbEntity
  8
2
  6
CONTINUOUS
 62
     7
100
AcDbLine
 10
329.994911
 20
1045.317639
 30
0.0
 11
326.202911
 21
1045.317639
 31
0.0
  0
LINE
  5
1EE
100
AcDbEntity
  8
2
  6
CONTINUOUS
 62
     7
100
AcDbLine
 10
347.202911
 20
1036.317639
 30
0.0
 11
343.702911
 21
1036.317639
 31
0.0
  0
LINE
  5
1EF
100
AcDbEntity
  8
2
  6
CONTINUOUS
 62
     7
100
AcDbLine
 10
343.202911
 20
1058.317639
 30
0.0
 11
343.202911
 21
1053.817639
 31
0.0
  0
LINE
  5
1F0
100
AcDbEntity
  8
2
  6
CONTINUOUS
 62
     7
100
AcDbLine
 10
345.202911
 20
1021.317639
 30
0.0
 11
344.702911
 21
1024.152839
 31
0.0
  0
LINE
  5
1F1
100
AcDbEntity
  8
2
  6
CONTINUOUS
 62
     7
100
AcDbLine
 10
344.702911
 20
1031.317639
 30
0.0
 11
344.702911
 21
1024.152839
 31
0.0
  0
LINE
  5
1F2
100
AcDbEntity
  8
2
  6
CONTINUOUS
 62
     7
100
AcDbLine
 10
328.702911
 20
1031.317639
 30
0.0
 11
328.702911
 21
1024.152839
 31
0.0
  0
LINE
  5
1F3
100
AcDbEntity
  8
2
  6
CONTINUOUS
 62
     7
100
AcDbLine
 10
328.202911
 20
1021.317639
 30
0.0
 11
328.702911
 21
1024.152839
 31
0.0
  0
LINE
  5
1F4
100
AcDbEntity
  8
2
  6
CONTINUOUS
 62
     7
100
AcDbLine
 10
1545.702911
 20
1086.317639
 30
0.0
 11
1545.702911
 21
1078.317639
 31
0.0
  0
LINE
  5
1F5
100
AcDbEntity
  8
2
  6
CONTINUOUS
 62
     7
100
AcDbLine
 10
1545.702911
 20
1078.317639
 30
0.0
 11
1536.702911
 21
1078.317639
 31
0.0
  0
LINE
  5
1F6
100
AcDbEntity
  8
2
  6
CONTINUOUS
 62
     7
100
AcDbLine
 10
1545.050111
 20
1071.317639
 30
0.0
 11
1545.233311
 21
1078.317639
 31
0.0
  0
LINE
  5
1F7
100
AcDbEntity
  8
2
  6
CONTINUOUS
 62
     7
100
AcDbLine
 10
1544.194911
 20
1071.317639
 30
0.0
 11
1544.337311
 21
1076.765639
 31
0.0
  0
LINE
  5
1F8
100
AcDbEntity
  8
2
  6
CONTINUOUS
 62
     7
100
AcDbLine
 10
1545.233311
 20
1078.317639
 30
0.0
 11
1544.337311
 21
1076.765639
 31
0.0
  0
LINE
  5
1F9
100
AcDbEntity
  8
2
  6
CONTINUOUS
 62
     7
100
AcDbLine
 10
1545.192511
 20
1076.765639
 30
0.0
 11
1536.702911
 21
1076.765639
 31
0.0
  0
LINE
  5
1FA
100
AcDbEntity
  8
2
  6
CONTINUOUS
 62
     7
100
AcDbLine
 10
1528.213311
 20
1076.765639
 30
0.0
 11
1536.702911
 21
1076.765639
 31
0.0
  0
LINE
  5
1FB
100
AcDbEntity
  8
2
  6
CONTINUOUS
 62
     7
100
AcDbLine
 10
1527.702911
 20
1086.317639
 30
0.0
 11
1527.702911
 21
1078.317639
 31
0.0
  0
LINE
  5
1FC
100
AcDbEntity
  8
2
  6
CONTINUOUS
 62
     7
100
AcDbLine
 10
1527.702911
 20
1078.317639
 30
0.0
 11
1536.702911
 21
1078.317639
 31
0.0
  0
LINE
  5
1FD
100
AcDbEntity
  8
2
  6
CONTINUOUS
 62
     7
100
AcDbLine
 10
1528.355711
 20
1071.316839
 30
0.0
 11
1528.172511
 21
1078.316839
 31
0.0
  0
LINE
  5
1FE
100
AcDbEntity
  8
2
  6
CONTINUOUS
 62
     7
100
AcDbLine
 10
1529.210911
 20
1071.317639
 30
0.0
 11
1529.068511
 21
1076.765639
 31
0.0
  0
LINE
  5
1FF
100
AcDbEntity
  8
2
  6
CONTINUOUS
 62
     7
100
AcDbLine
 10
1528.172511
 20
1078.317639
 30
0.0
 11
1529.068511
 21
1076.765639
 31
0.0
  0
LINE
  5
200
100
AcDbEntity
  8
2
  6
CENTER
 62
     7
100
AcDbLine
 10
1536.702911
 20
1122.667239
 30
0.0
 11
1536.702911
 21
1071.667239
 31
0.0
  0
LINE
  5
201
100
AcDbEntity
  8
2
  6
CENTER
 62
     7
100
AcDbLine
 10
1553.328511
 20
1043.317639
 30
0.0
 11
1522.984511
 21
1043.317639
 31
0.0
  0
LINE
  5
202
100
AcDbEntity
  8
2
  6
CENTER
 62
     7
100
AcDbLine
 10
1536.702911
 20
1075.469639
 30
0.0
 11
1536.702911
 21
975.108039
 31
0.0
  0
LINE
  5
203
100
AcDbEntity
  8
2
  6
CONTINUOUS
 62
     7
100
AcDbLine
 10
1547.202911
 20
1071.317639
 30
0.0
 11
1526.202911
 21
1071.317639
 31
0.0
  0
LINE
  5
204
100
AcDbEntity
  8
2
  6
CONTINUOUS
 62
     7
100
AcDbLine
 10
1547.202911
 20
1021.317639
 30
0.0
 11
1545.202911
 21
1021.317639
 31
0.0
  0
LINE
  5
205
100
AcDbEntity
  8
2
  6
CONTINUOUS
 62
     7
100
AcDbLine
 10
1547.202911
 20
1071.317639
 30
0.0
 11
1547.202911
 21
1021.317639
 31
0.0
  0
LINE
  5
206
100
AcDbEntity
  8
2
  6
CONTINUOUS
 62
     7
100
AcDbLine
 10
1526.202911
 20
1071.317639
 30
0.0
 11
1526.202911
 21
1021.317639
 31
0.0
  0
LINE
  5
207
100
AcDbEntity
  8
2
  6
CONTINUOUS
 62
     7
100
AcDbLine
 10
1528.202911
 20
1021.317639
 30
0.0
 11
1526.202911
 21
1021.317639
 31
0.0
  0
LINE
  5
208
100
AcDbEntity
  8
2
  6
CONTINUOUS
 62
     7
100
AcDbLine
 10
1547.202911
 20
1045.317639
 30
0.0
 11
1543.702911
 21
1045.317639
 31
0.0
  0
LINE
  5
209
100
AcDbEntity
  8
2
  6
CONTINUOUS
 62
     7
100
AcDbLine
 10
1543.202911
 20
1058.317639
 30
0.0
 11
1530.202911
 21
1058.317639
 31
0.0
  0
LINE
  5
20A
100
AcDbEntity
  8
2
  6
CONTINUOUS
 62
     7
100
AcDbLine
 10
1537.702911
 20
1070.817639
 30
0.0
 11
1537.702911
 21
1059.317639
 31
0.0
  0
LINE
  5
20B
100
AcDbEntity
  8
2
  6
CONTINUOUS
 62
     7
100
AcDbLine
 10
1535.702911
 20
1070.817639
 30
0.0
 11
1535.702911
 21
1059.317639
 31
0.0
  0
LINE
  5
20C
100
AcDbEntity
  8
2
  6
CONTINUOUS
 62
     7
100
AcDbLine
 10
1530.202911
 20
1058.317639
 30
0.0
 11
1530.202911
 21
1045.915239
 31
0.0
  0
LINE
  5
20D
100
AcDbEntity
  8
2
  6
CONTINUOUS
 62
     7
100
AcDbLine
 10
1537.702911
 20
1059.317639
 30
0.0
 11
1535.702911
 21
1059.317639
 31
0.0
  0
LINE
  5
20E
100
AcDbEntity
  8
2
  6
CONTINUOUS
 62
     7
100
AcDbLine
 10
1543.202911
 20
1058.316839
 30
0.0
 11
1537.702911
 21
1059.317639
 31
0.0
  0
LINE
  5
20F
100
AcDbEntity
  8
2
  6
CONTINUOUS
 62
     7
100
AcDbLine
 10
1535.702911
 20
1059.317639
 30
0.0
 11
1530.202911
 21
1058.317639
 31
0.0
  0
LINE
  5
210
100
AcDbEntity
  8
2
  6
CONTINUOUS
 62
     7
100
AcDbLine
 10
1546.702911
 20
1070.817639
 30
0.0
 11
1546.702911
 21
1045.317639
 31
0.0
  0
LINE
  5
211
100
AcDbEntity
  8
2
  6
CONTINUOUS
 62
     7
100
AcDbLine
 10
1546.702911
 20
1036.317639
 30
0.0
 11
1546.702911
 21
1021.817639
 31
0.0
  0
LINE
  5
212
100
AcDbEntity
  8
2
  6
CONTINUOUS
 62
     7
100
AcDbLine
 10
1526.702911
 20
1041.317639
 30
0.0
 11
1526.702911
 21
1021.817639
 31
0.0
  0
LINE
  5
213
100
AcDbEntity
  8
2
  6
CONTINUOUS
 62
     7
100
AcDbLine
 10
1526.702911
 20
1070.817639
 30
0.0
 11
1526.702911
 21
1045.317639
 31
0.0
  0
LINE
  5
214
100
AcDbEntity
  8
2
  6
CONTINUOUS
 62
     7
100
AcDbLine
 10
1537.702911
 20
1070.817639
 30
0.0
 11
1535.702911
 21
1070.817639
 31
0.0
  0
LINE
  5
215
100
AcDbEntity
  8
2
  6
CONTINUOUS
 62
     7
100
AcDbLine
 10
1547.202911
 20
1021.817639
 30
0.0
 11
1546.702911
 21
1021.817639
 31
0.0
  0
LINE
  5
216
100
AcDbEntity
  8
2
  6
CONTINUOUS
 62
     7
100
AcDbLine
 10
1546.702911
 20
1021.817639
 30
0.0
 11
1545.202911
 21
1021.317639
 31
0.0
  0
LINE
  5
217
100
AcDbEntity
  8
2
  6
CONTINUOUS
 62
     7
100
AcDbLine
 10
1547.202911
 20
1070.817639
 30
0.0
 11
1546.702911
 21
1070.817639
 31
0.0
  0
LINE
  5
218
100
AcDbEntity
  8
2
  6
CONTINUOUS
 62
     7
100
AcDbLine
 10
1526.702911
 20
1070.817639
 30
0.0
 11
1526.202911
 21
1070.817639
 31
0.0
  0
LINE
  5
219
100
AcDbEntity
  8
2
  6
CONTINUOUS
 62
     7
100
AcDbLine
 10
1526.702911
 20
1021.817639
 30
0.0
 11
1526.202911
 21
1021.817639
 31
0.0
  0
LINE
  5
21A
100
AcDbEntity
  8
2
  6
CONTINUOUS
 62
     7
100
AcDbLine
 10
1528.202911
 20
1021.316839
 30
0.0
 11
1526.702911
 21
1021.816839
 31
0.0
  0
LINE
  5
21B
100
AcDbEntity
  8
2
  6
CONTINUOUS
 62
     7
100
AcDbLine
 10
1536.702911
 20
981.316839
 30
0.0
 11
1530.702911
 21
984.781639
 31
0.0
  0
LINE
  5
21C
100
AcDbEntity
  8
2
  6
CONTINUOUS
 62
     7
100
AcDbLine
 10
1530.702911
 20
984.781639
 30
0.0
 11
1528.202911
 21
1021.316839
 31
0.0
  0
LINE
  5
21D
100
AcDbEntity
  8
2
  6
CONTINUOUS
 62
     7
100
AcDbLine
 10
1542.702911
 20
984.781639
 30
0.0
 11
1545.202911
 21
1021.317639
 31
0.0
  0
LINE
  5
21E
100
AcDbEntity
  8
2
  6
CONTINUOUS
 62
     7
100
AcDbLine
 10
1536.702911
 20
981.317639
 30
0.0
 11
1542.702911
 21
984.781639
 31
0.0
  0
LINE
  5
21F
100
AcDbEntity
  8
2
  6
CONTINUOUS
 62
     7
100
AcDbLine
 10
1542.840511
 20
1026.317639
 30
0.0
 11
1536.702911
 21
1026.317639
 31
0.0
  0
LINE
  5
220
100
AcDbEntity
  8
2
  6
CONTINUOUS
 62
     7
100
AcDbLine
 10
1542.840511
 20
1026.317639
 30
0.0
 11
1543.746911
 21
1025.410439
 31
0.0
  0
LINE
  5
221
100
AcDbEntity
  8
2
  6
CONTINUOUS
 62
     7
100
AcDbLine
 10
1530.565311
 20
1026.317639
 30
0.0
 11
1536.702911
 21
1026.317639
 31
0.0
  0
LINE
  5
222
100
AcDbEntity
  8
2
  6
CONTINUOUS
 62
     7
100
AcDbLine
 10
1530.565311
 20
1026.316839
 30
0.0
 11
1529.658911
 21
1025.410439
 31
0.0
  0
LINE
  5
223
100
AcDbEntity
  8
2
  6
CONTINUOUS
 62
     7
100
AcDbLine
 10
1538.702911
 20
1044.816839
 30
0.0
 11
1538.702911
 21
1041.817639
 31
0.0
  0
LINE
  5
224
100
AcDbEntity
  8
2
  6
CONTINUOUS
 62
     7
100
AcDbLine
 10
1534.702911
 20
1044.816839
 30
0.0
 11
1534.702911
 21
1041.817639
 31
0.0
  0
LINE
  5
225
100
AcDbEntity
  8
2
  6
CONTINUOUS
 62
     7
100
AcDbLine
 10
1538.723711
 20
1046.817639
 30
0.0
 11
1540.744511
 21
1043.317639
 31
0.0
  0
LINE
  5
226
100
AcDbEntity
  8
2
  6
CONTINUOUS
 62
     7
100
AcDbLine
 10
1540.744511
 20
1043.316839
 30
0.0
 11
1538.723711
 21
1039.816839
 31
0.0
  0
LINE
  5
227
100
AcDbEntity
  8
2
  6
CONTINUOUS
 62
     7
100
AcDbLine
 10
1534.682111
 20
1039.817639
 30
0.0
 11
1538.723711
 21
1039.817639
 31
0.0
  0
LINE
  5
228
100
AcDbEntity
  8
2
  6
CONTINUOUS
 62
     7
100
AcDbLine
 10
1532.661311
 20
1043.317639
 30
0.0
 11
1534.682111
 21
1039.817639
 31
0.0
  0
LINE
  5
229
100
AcDbEntity
  8
2
  6
CONTINUOUS
 62
     7
100
AcDbLine
 10
1534.682111
 20
1046.816839
 30
0.0
 11
1532.661311
 21
1043.316839
 31
0.0
  0
LINE
  5
22A
100
AcDbEntity
  8
2
  6
CONTINUOUS
 62
     7
100
AcDbLine
 10
1538.723711
 20
1046.817639
 30
0.0
 11
1534.682111
 21
1046.817639
 31
0.0
  0
LINE
  5
22B
100
AcDbEntity
  8
2
  6
CONTINUOUS
 62
     7
100
AcDbLine
 10
1543.702911
 20
1032.317639
 30
0.0
 11
1529.702911
 21
1032.317639
 31
0.0
  0
LINE
  5
22C
100
AcDbEntity
  8
2
  6
CONTINUOUS
 62
     7
100
AcDbLine
 10
1543.702911
 20
1032.317639
 30
0.0
 11
1544.702911
 21
1031.317639
 31
0.0
  0
LINE
  5
22D
100
AcDbEntity
  8
2
  6
CONTINUOUS
 62
     7
100
AcDbLine
 10
1529.702911
 20
1032.316839
 30
0.0
 11
1528.702911
 21
1031.316839
 31
0.0
  0
LINE
  5
22E
100
AcDbEntity
  8
2
  6
CONTINUOUS
 62
     7
100
AcDbLine
 10
1547.202911
 20
1041.317639
 30
0.0
 11
1543.702911
 21
1041.317639
 31
0.0
  0
LINE
  5
22F
100
AcDbEntity
  8
2
  6
CONTINUOUS
 62
     7
100
AcDbLine
 10
1529.702911
 20
1041.317639
 30
0.0
 11
1526.202911
 21
1041.317639
 31
0.0
  0
LINE
  5
230
100
AcDbEntity
  8
2
  6
CONTINUOUS
 62
     7
100
AcDbLine
 10
1529.994911
 20
1045.317639
 30
0.0
 11
1526.202911
 21
1045.317639
 31
0.0
  0
LINE
  5
231
100
AcDbEntity
  8
2
  6
CONTINUOUS
 62
     7
100
AcDbLine
 10
1547.202911
 20
1036.317639
 30
0.0
 11
1543.702911
 21
1036.317639
 31
0.0
  0
LINE
  5
232
100
AcDbEntity
  8
2
  6
CONTINUOUS
 62
     7
100
AcDbLine
 10
1543.202911
 20
1058.317639
 30
0.0
 11
1543.202911
 21
1053.817639
 31
0.0
  0
LINE
  5
233
100
AcDbEntity
  8
2
  6
CONTINUOUS
 62
     7
100
AcDbLine
 10
1545.202911
 20
1021.316839
 30
0.0
 11
1544.702911
 21
1024.152839
 31
0.0
  0
LINE
  5
234
100
AcDbEntity
  8
2
  6
CONTINUOUS
 62
     7
100
AcDbLine
 10
1544.702911
 20
1031.317639
 30
0.0
 11
1544.702911
 21
1024.152839
 31
0.0
  0
LINE
  5
235
100
AcDbEntity
  8
2
  6
CONTINUOUS
 62
     7
100
AcDbLine
 10
1528.702911
 20
1031.317639
 30
0.0
 11
1528.702911
 21
1024.152839
 31
0.0
  0
LINE
  5
236
100
AcDbEntity
  8
2
  6
CONTINUOUS
 62
     7
100
AcDbLine
 10
1528.202911
 20
1021.317639
 30
0.0
 11
1528.702911
 21
1024.152839
 31
0.0
  0
LINE
  5
237
100
AcDbEntity
  8
2
  6
CONTINUOUS
 62
     7
100
AcDbLine
 10
1545.702911
 20
1083.316839
 30
0.0
 11
1548.702911
 21
1086.317639
 31
0.0
  0
LINE
  5
238
100
AcDbEntity
  8
2
  6
CONTINUOUS
 62
     7
100
AcDbLine
 10
1527.702911
 20
1083.316839
 30
0.0
 11
1524.702911
 21
1086.317639
 31
0.0
  0
LINE
  5
239
100
AcDbEntity
  8
2
  6
CONTINUOUS
 62
     7
100
AcDbLine
 10
1145.702911
 20
1086.317639
 30
0.0
 11
1145.702911
 21
1078.317639
 31
0.0
  0
LINE
  5
23A
100
AcDbEntity
  8
2
  6
CONTINUOUS
 62
     7
100
AcDbLine
 10
1145.702911
 20
1078.317639
 30
0.0
 11
1136.702911
 21
1078.317639
 31
0.0
  0
LINE
  5
23B
100
AcDbEntity
  8
2
  6
CONTINUOUS
 62
     7
100
AcDbLine
 10
1145.050111
 20
1071.316839
 30
0.0
 11
1145.233311
 21
1078.317639
 31
0.0
  0
LINE
  5
23C
100
AcDbEntity
  8
2
  6
CONTINUOUS
 62
     7
100
AcDbLine
 10
1144.194911
 20
1071.316839
 30
0.0
 11
1144.337311
 21
1076.765639
 31
0.0
  0
LINE
  5
23D
100
AcDbEntity
  8
2
  6
CONTINUOUS
 62
     7
100
AcDbLine
 10
1145.233311
 20
1078.316839
 30
0.0
 11
1144.337311
 21
1076.765639
 31
0.0
  0
LINE
  5
23E
100
AcDbEntity
  8
2
  6
CONTINUOUS
 62
     7
100
AcDbLine
 10
1145.192511
 20
1076.765639
 30
0.0
 11
1136.702911
 21
1076.765639
 31
0.0
  0
LINE
  5
23F
100
AcDbEntity
  8
2
  6
CONTINUOUS
 62
     7
100
AcDbLine
 10
1128.213311
 20
1076.765639
 30
0.0
 11
1136.702911
 21
1076.765639
 31
0.0
  0
LINE
  5
240
100
AcDbEntity
  8
2
  6
CONTINUOUS
 62
     7
100
AcDbLine
 10
1127.702911
 20
1086.317639
 30
0.0
 11
1127.702911
 21
1078.317639
 31
0.0
  0
LINE
  5
241
100
AcDbEntity
  8
2
  6
CONTINUOUS
 62
     7
100
AcDbLine
 10
1127.702911
 20
1078.317639
 30
0.0
 11
1136.702911
 21
1078.317639
 31
0.0
  0
LINE
  5
242
100
AcDbEntity
  8
2
  6
CONTINUOUS
 62
     7
100
AcDbLine
 10
1128.355711
 20
1071.316839
 30
0.0
 11
1128.172511
 21
1078.316839
 31
0.0
  0
LINE
  5
243
100
AcDbEntity
  8
2
  6
CONTINUOUS
 62
     7
100
AcDbLine
 10
1129.210911
 20
1071.316839
 30
0.0
 11
1129.068511
 21
1076.765639
 31
0.0
  0
LINE
  5
244
100
AcDbEntity
  8
2
  6
CONTINUOUS
 62
     7
100
AcDbLine
 10
1128.172511
 20
1078.317639
 30
0.0
 11
1129.068511
 21
1076.765639
 31
0.0
  0
LINE
  5
245
100
AcDbEntity
  8
2
  6
CONTINUOUS
 62
     7
100
AcDbLine
 10
1127.702911
 20
1083.317639
 30
0.0
 11
1124.702911
 21
1086.317639
 31
0.0
  0
LINE
  5
246
100
AcDbEntity
  8
2
  6
CONTINUOUS
 62
     7
100
AcDbLine
 10
1145.702911
 20
1083.316839
 30
0.0
 11
1148.702911
 21
1086.316839
 31
0.0
  0
LINE
  5
247
100
AcDbEntity
  8
2
  6
CENTER
 62
     7
100
AcDbLine
 10
1136.702911
 20
1122.667239
 30
0.0
 11
1136.702911
 21
1071.667239
 31
0.0
  0
LINE
  5
248
100
AcDbEntity
  8
2
  6
CENTER
 62
     7
100
AcDbLine
 10
1153.328511
 20
1043.317639
 30
0.0
 11
1122.984511
 21
1043.317639
 31
0.0
  0
LINE
  5
249
100
AcDbEntity
  8
2
  6
CENTER
 62
     7
100
AcDbLine
 10
1136.702911
 20
1075.469639
 30
0.0
 11
1136.702911
 21
975.108039
 31
0.0
  0
LINE
  5
24A
100
AcDbEntity
  8
2
  6
CONTINUOUS
 62
     7
100
AcDbLine
 10
1147.202911
 20
1071.317639
 30
0.0
 11
1126.202911
 21
1071.317639
 31
0.0
  0
LINE
  5
24B
100
AcDbEntity
  8
2
  6
CONTINUOUS
 62
     7
100
AcDbLine
 10
1147.202911
 20
1021.317639
 30
0.0
 11
1145.202911
 21
1021.317639
 31
0.0
  0
LINE
  5
24C
100
AcDbEntity
  8
2
  6
CONTINUOUS
 62
     7
100
AcDbLine
 10
1147.202911
 20
1071.317639
 30
0.0
 11
1147.202911
 21
1021.317639
 31
0.0
  0
LINE
  5
24D
100
AcDbEntity
  8
2
  6
CONTINUOUS
 62
     7
100
AcDbLine
 10
1126.202911
 20
1071.317639
 30
0.0
 11
1126.202911
 21
1021.317639
 31
0.0
  0
LINE
  5
24E
100
AcDbEntity
  8
2
  6
CONTINUOUS
 62
     7
100
AcDbLine
 10
1128.202911
 20
1021.317639
 30
0.0
 11
1126.202911
 21
1021.317639
 31
0.0
  0
LINE
  5
24F
100
AcDbEntity
  8
2
  6
CONTINUOUS
 62
     7
100
AcDbLine
 10
1147.202911
 20
1045.317639
 30
0.0
 11
1143.702911
 21
1045.317639
 31
0.0
  0
LINE
  5
250
100
AcDbEntity
  8
2
  6
CONTINUOUS
 62
     7
100
AcDbLine
 10
1143.202911
 20
1058.317639
 30
0.0
 11
1130.202911
 21
1058.317639
 31
0.0
  0
LINE
  5
251
100
AcDbEntity
  8
2
  6
CONTINUOUS
 62
     7
100
AcDbLine
 10
1137.702911
 20
1070.817639
 30
0.0
 11
1137.702911
 21
1059.317639
 31
0.0
  0
LINE
  5
252
100
AcDbEntity
  8
2
  6
CONTINUOUS
 62
     7
100
AcDbLine
 10
1135.702911
 20
1070.817639
 30
0.0
 11
1135.702911
 21
1059.317639
 31
0.0
  0
LINE
  5
253
100
AcDbEntity
  8
2
  6
CONTINUOUS
 62
     7
100
AcDbLine
 10
1130.202911
 20
1058.317639
 30
0.0
 11
1130.202911
 21
1045.915239
 31
0.0
  0
LINE
  5
254
100
AcDbEntity
  8
2
  6
CONTINUOUS
 62
     7
100
AcDbLine
 10
1137.702911
 20
1059.317639
 30
0.0
 11
1135.702911
 21
1059.317639
 31
0.0
  0
LINE
  5
255
100
AcDbEntity
  8
2
  6
CONTINUOUS
 62
     7
100
AcDbLine
 10
1143.202911
 20
1058.316839
 30
0.0
 11
1137.702911
 21
1059.316839
 31
0.0
  0
LINE
  5
256
100
AcDbEntity
  8
2
  6
CONTINUOUS
 62
     7
100
AcDbLine
 10
1135.702911
 20
1059.316839
 30
0.0
 11
1130.202911
 21
1058.317639
 31
0.0
  0
LINE
  5
257
100
AcDbEntity
  8
2
  6
CONTINUOUS
 62
     7
100
AcDbLine
 10
1146.702911
 20
1070.817639
 30
0.0
 11
1146.702911
 21
1045.317639
 31
0.0
  0
LINE
  5
258
100
AcDbEntity
  8
2
  6
CONTINUOUS
 62
     7
100
AcDbLine
 10
1146.702911
 20
1036.317639
 30
0.0
 11
1146.702911
 21
1021.817639
 31
0.0
  0
LINE
  5
259
100
AcDbEntity
  8
2
  6
CONTINUOUS
 62
     7
100
AcDbLine
 10
1126.702911
 20
1041.317639
 30
0.0
 11
1126.702911
 21
1021.817639
 31
0.0
  0
LINE
  5
25A
100
AcDbEntity
  8
2
  6
CONTINUOUS
 62
     7
100
AcDbLine
 10
1126.702911
 20
1070.817639
 30
0.0
 11
1126.702911
 21
1045.317639
 31
0.0
  0
LINE
  5
25B
100
AcDbEntity
  8
2
  6
CONTINUOUS
 62
     7
100
AcDbLine
 10
1137.702911
 20
1070.817639
 30
0.0
 11
1135.702911
 21
1070.817639
 31
0.0
  0
LINE
  5
25C
100
AcDbEntity
  8
2
  6
CONTINUOUS
 62
     7
100
AcDbLine
 10
1147.202911
 20
1021.817639
 30
0.0
 11
1146.702911
 21
1021.817639
 31
0.0
  0
LINE
  5
25D
100
AcDbEntity
  8
2
  6
CONTINUOUS
 62
     7
100
AcDbLine
 10
1146.702911
 20
1021.816839
 30
0.0
 11
1145.202911
 21
1021.316839
 31
0.0
  0
LINE
  5
25E
100
AcDbEntity
  8
2
  6
CONTINUOUS
 62
     7
100
AcDbLine
 10
1147.202911
 20
1070.817639
 30
0.0
 11
1146.702911
 21
1070.817639
 31
0.0
  0
LINE
  5
25F
100
AcDbEntity
  8
2
  6
CONTINUOUS
 62
     7
100
AcDbLine
 10
1126.702911
 20
1070.817639
 30
0.0
 11
1126.202911
 21
1070.817639
 31
0.0
  0
LINE
  5
260
100
AcDbEntity
  8
2
  6
CONTINUOUS
 62
     7
100
AcDbLine
 10
1126.702911
 20
1021.817639
 30
0.0
 11
1126.202911
 21
1021.817639
 31
0.0
  0
LINE
  5
261
100
AcDbEntity
  8
2
  6
CONTINUOUS
 62
     7
100
AcDbLine
 10
1128.202911
 20
1021.317639
 30
0.0
 11
1126.702911
 21
1021.817639
 31
0.0
  0
LINE
  5
262
100
AcDbEntity
  8
2
  6
CONTINUOUS
 62
     7
100
AcDbLine
 10
1136.702911
 20
981.316839
 30
0.0
 11
1130.702911
 21
984.781639
 31
0.0
  0
LINE
  5
263
100
AcDbEntity
  8
2
  6
CONTINUOUS
 62
     7
100
AcDbLine
 10
1130.702911
 20
984.781639
 30
0.0
 11
1128.202911
 21
1021.317639
 31
0.0
  0
LINE
  5
264
100
AcDbEntity
  8
2
  6
CONTINUOUS
 62
     7
100
AcDbLine
 10
1142.702911
 20
984.781639
 30
0.0
 11
1145.202911
 21
1021.317639
 31
0.0
  0
LINE
  5
265
100
AcDbEntity
  8
2
  6
CONTINUOUS
 62
     7
100
AcDbLine
 10
1136.702911
 20
981.317639
 30
0.0
 11
1142.702911
 21
984.781639
 31
0.0
  0
LINE
  5
266
100
AcDbEntity
  8
2
  6
CONTINUOUS
 62
     7
100
AcDbLine
 10
1142.840511
 20
1026.317639
 30
0.0
 11
1136.702911
 21
1026.317639
 31
0.0
  0
LINE
  5
267
100
AcDbEntity
  8
2
  6
CONTINUOUS
 62
     7
100
AcDbLine
 10
1142.840511
 20
1026.316839
 30
0.0
 11
1143.746911
 21
1025.410439
 31
0.0
  0
LINE
  5
268
100
AcDbEntity
  8
2
  6
CONTINUOUS
 62
     7
100
AcDbLine
 10
1130.565311
 20
1026.317639
 30
0.0
 11
1136.702911
 21
1026.317639
 31
0.0
  0
LINE
  5
269
100
AcDbEntity
  8
2
  6
CONTINUOUS
 62
     7
100
AcDbLine
 10
1130.565311
 20
1026.317639
 30
0.0
 11
1129.658911
 21
1025.410439
 31
0.0
  0
LINE
  5
26A
100
AcDbEntity
  8
2
  6
CONTINUOUS
 62
     7
100
AcDbLine
 10
1138.702911
 20
1044.816839
 30
0.0
 11
1138.702911
 21
1041.817639
 31
0.0
  0
LINE
  5
26B
100
AcDbEntity
  8
2
  6
CONTINUOUS
 62
     7
100
AcDbLine
 10
1134.702911
 20
1044.816839
 30
0.0
 11
1134.702911
 21
1041.817639
 31
0.0
  0
LINE
  5
26C
100
AcDbEntity
  8
2
  6
CONTINUOUS
 62
     7
100
AcDbLine
 10
1138.723711
 20
1046.816839
 30
0.0
 11
1140.744511
 21
1043.316839
 31
0.0
  0
LINE
  5
26D
100
AcDbEntity
  8
2
  6
CONTINUOUS
 62
     7
100
AcDbLine
 10
1140.744511
 20
1043.317639
 30
0.0
 11
1138.723711
 21
1039.817639
 31
0.0
  0
LINE
  5
26E
100
AcDbEntity
  8
2
  6
CONTINUOUS
 62
     7
100
AcDbLine
 10
1134.682111
 20
1039.817639
 30
0.0
 11
1138.723711
 21
1039.817639
 31
0.0
  0
LINE
  5
26F
100
AcDbEntity
  8
2
  6
CONTINUOUS
 62
     7
100
AcDbLine
 10
1132.661311
 20
1043.316839
 30
0.0
 11
1134.682111
 21
1039.816839
 31
0.0
  0
LINE
  5
270
100
AcDbEntity
  8
2
  6
CONTINUOUS
 62
     7
100
AcDbLine
 10
1134.682111
 20
1046.817639
 30
0.0
 11
1132.661311
 21
1043.317639
 31
0.0
  0
LINE
  5
271
100
AcDbEntity
  8
2
  6
CONTINUOUS
 62
     7
100
AcDbLine
 10
1138.723711
 20
1046.817639
 30
0.0
 11
1134.682111
 21
1046.817639
 31
0.0
  0
LINE
  5
272
100
AcDbEntity
  8
2
  6
CONTINUOUS
 62
     7
100
AcDbLine
 10
1143.702911
 20
1032.317639
 30
0.0
 11
1129.702911
 21
1032.317639
 31
0.0
  0
LINE
  5
273
100
AcDbEntity
  8
2
  6
CONTINUOUS
 62
     7
100
AcDbLine
 10
1143.702911
 20
1032.317639
 30
0.0
 11
1144.702911
 21
1031.317639
 31
0.0
  0
LINE
  5
274
100
AcDbEntity
  8
2
  6
CONTINUOUS
 62
     7
100
AcDbLine
 10
1129.702911
 20
1032.316839
 30
0.0
 11
1128.702911
 21
1031.317639
 31
0.0
  0
LINE
  5
275
100
AcDbEntity
  8
2
  6
CONTINUOUS
 62
     7
100
AcDbLine
 10
1147.202911
 20
1041.317639
 30
0.0
 11
1143.702911
 21
1041.317639
 31
0.0
  0
LINE
  5
276
100
AcDbEntity
  8
2
  6
CONTINUOUS
 62
     7
100
AcDbLine
 10
1129.702911
 20
1041.317639
 30
0.0
 11
1126.202911
 21
1041.317639
 31
0.0
  0
LINE
  5
277
100
AcDbEntity
  8
2
  6
CONTINUOUS
 62
     7
100
AcDbLine
 10
1129.994911
 20
1045.317639
 30
0.0
 11
1126.202911
 21
1045.317639
 31
0.0
  0
LINE
  5
278
100
AcDbEntity
  8
2
  6
CONTINUOUS
 62
     7
100
AcDbLine
 10
1147.202911
 20
1036.317639
 30
0.0
 11
1143.702911
 21
1036.317639
 31
0.0
  0
LINE
  5
279
100
AcDbEntity
  8
2
  6
CONTINUOUS
 62
     7
100
AcDbLine
 10
1143.202911
 20
1058.317639
 30
0.0
 11
1143.202911
 21
1053.817639
 31
0.0
  0
LINE
  5
27A
100
AcDbEntity
  8
2
  6
CONTINUOUS
 62
     7
100
AcDbLine
 10
1145.202911
 20
1021.317639
 30
0.0
 11
1144.702911
 21
1024.152839
 31
0.0
  0
LINE
  5
27B
100
AcDbEntity
  8
2
  6
CONTINUOUS
 62
     7
100
AcDbLine
 10
1144.702911
 20
1031.317639
 30
0.0
 11
1144.702911
 21
1024.152839
 31
0.0
  0
LINE
  5
27C
100
AcDbEntity
  8
2
  6
CONTINUOUS
 62
     7
100
AcDbLine
 10
1128.702911
 20
1031.317639
 30
0.0
 11
1128.702911
 21
1024.152839
 31
0.0
  0
LINE
  5
27D
100
AcDbEntity
  8
2
  6
CONTINUOUS
 62
     7
100
AcDbLine
 10
1128.202911
 20
1021.317639
 30
0.0
 11
1128.702911
 21
1024.152839
 31
0.0
  0
LINE
  5
27E
100
AcDbEntity
  8
2
  6
CONTINUOUS
 62
     7
100
AcDbLine
 10
745.702911
 20
1086.317639
 30
0.0
 11
745.702911
 21
1078.317639
 31
0.0
  0
LINE
  5
27F
100
AcDbEntity
  8
2
  6
CONTINUOUS
 62
     7
100
AcDbLine
 10
745.702911
 20
1078.317639
 30
0.0
 11
736.702911
 21
1078.317639
 31
0.0
  0
LINE
  5
280
100
AcDbEntity
  8
2
  6
CONTINUOUS
 62
     7
100
AcDbLine
 10
745.050111
 20
1071.317639
 30
0.0
 11
745.233311
 21
1078.317639
 31
0.0
  0
LINE
  5
281
100
AcDbEntity
  8
2
  6
CONTINUOUS
 62
     7
100
AcDbLine
 10
744.194911
 20
1071.317639
 30
0.0
 11
744.337311
 21
1076.765639
 31
0.0
  0
LINE
  5
282
100
AcDbEntity
  8
2
  6
CONTINUOUS
 62
     7
100
AcDbLine
 10
745.233311
 20
1078.316839
 30
0.0
 11
744.337311
 21
1076.765639
 31
0.0
  0
LINE
  5
283
100
AcDbEntity
  8
2
  6
CONTINUOUS
 62
     7
100
AcDbLine
 10
745.192511
 20
1076.765639
 30
0.0
 11
736.702911
 21
1076.765639
 31
0.0
  0
LINE
  5
284
100
AcDbEntity
  8
2
  6
CONTINUOUS
 62
     7
100
AcDbLine
 10
728.213311
 20
1076.765639
 30
0.0
 11
736.702911
 21
1076.765639
 31
0.0
  0
LINE
  5
285
100
AcDbEntity
  8
2
  6
CONTINUOUS
 62
     7
100
AcDbLine
 10
727.702911
 20
1086.317639
 30
0.0
 11
727.702911
 21
1078.317639
 31
0.0
  0
LINE
  5
286
100
AcDbEntity
  8
2
  6
CONTINUOUS
 62
     7
100
AcDbLine
 10
727.702911
 20
1078.317639
 30
0.0
 11
736.702911
 21
1078.317639
 31
0.0
  0
LINE
  5
287
100
AcDbEntity
  8
2
  6
CONTINUOUS
 62
     7
100
AcDbLine
 10
728.355711
 20
1071.316839
 30
0.0
 11
728.172511
 21
1078.316839
 31
0.0
  0
LINE
  5
288
100
AcDbEntity
  8
2
  6
CONTINUOUS
 62
     7
100
AcDbLine
 10
729.210911
 20
1071.316839
 30
0.0
 11
729.068511
 21
1076.765639
 31
0.0
  0
LINE
  5
289
100
AcDbEntity
  8
2
  6
CONTINUOUS
 62
     7
100
AcDbLine
 10
728.172511
 20
1078.317639
 30
0.0
 11
729.068511
 21
1076.765639
 31
0.0
  0
LINE
  5
28A
100
AcDbEntity
  8
2
  6
CONTINUOUS
 62
     7
100
AcDbLine
 10
727.702911
 20
1083.316839
 30
0.0
 11
724.702911
 21
1086.317639
 31
0.0
  0
LINE
  5
28B
100
AcDbEntity
  8
2
  6
CONTINUOUS
 62
     7
100
AcDbLine
 10
745.702911
 20
1083.317639
 30
0.0
 11
748.702911
 21
1086.317639
 31
0.0
  0
LINE
  5
28C
100
AcDbEntity
  8
2
  6
CENTER
 62
     7
100
AcDbLine
 10
736.702911
 20
1122.667239
 30
0.0
 11
736.702911
 21
1071.667239
 31
0.0
  0
LINE
  5
28D
100
AcDbEntity
  8
2
  6
CENTER
 62
     7
100
AcDbLine
 10
753.328511
 20
1043.317639
 30
0.0
 11
722.983711
 21
1043.317639
 31
0.0
  0
LINE
  5
28E
100
AcDbEntity
  8
2
  6
CENTER
 62
     7
100
AcDbLine
 10
736.702911
 20
1075.469639
 30
0.0
 11
736.702911
 21
975.108039
 31
0.0
  0
LINE
  5
28F
100
AcDbEntity
  8
2
  6
CONTINUOUS
 62
     7
100
AcDbLine
 10
747.202911
 20
1071.317639
 30
0.0
 11
726.202911
 21
1071.317639
 31
0.0
  0
LINE
  5
290
100
AcDbEntity
  8
2
  6
CONTINUOUS
 62
     7
100
AcDbLine
 10
747.202911
 20
1021.317639
 30
0.0
 11
745.202911
 21
1021.317639
 31
0.0
  0
LINE
  5
291
100
AcDbEntity
  8
2
  6
CONTINUOUS
 62
     7
100
AcDbLine
 10
747.202911
 20
1071.317639
 30
0.0
 11
747.202911
 21
1021.317639
 31
0.0
  0
LINE
  5
292
100
AcDbEntity
  8
2
  6
CONTINUOUS
 62
     7
100
AcDbLine
 10
726.202911
 20
1071.317639
 30
0.0
 11
726.202911
 21
1021.317639
 31
0.0
  0
LINE
  5
293
100
AcDbEntity
  8
2
  6
CONTINUOUS
 62
     7
100
AcDbLine
 10
728.202911
 20
1021.317639
 30
0.0
 11
726.202911
 21
1021.317639
 31
0.0
  0
LINE
  5
294
100
AcDbEntity
  8
2
  6
CONTINUOUS
 62
     7
100
AcDbLine
 10
747.202911
 20
1045.317639
 30
0.0
 11
743.702911
 21
1045.317639
 31
0.0
  0
LINE
  5
295
100
AcDbEntity
  8
2
  6
CONTINUOUS
 62
     7
100
AcDbLine
 10
743.202911
 20
1058.317639
 30
0.0
 11
730.202911
 21
1058.317639
 31
0.0
  0
LINE
  5
296
100
AcDbEntity
  8
2
  6
CONTINUOUS
 62
     7
100
AcDbLine
 10
737.702911
 20
1070.817639
 30
0.0
 11
737.702911
 21
1059.317639
 31
0.0
  0
LINE
  5
297
100
AcDbEntity
  8
2
  6
CONTINUOUS
 62
     7
100
AcDbLine
 10
735.702911
 20
1070.817639
 30
0.0
 11
735.702911
 21
1059.317639
 31
0.0
  0
LINE
  5
298
100
AcDbEntity
  8
2
  6
CONTINUOUS
 62
     7
100
AcDbLine
 10
730.202911
 20
1058.317639
 30
0.0
 11
730.202911
 21
1045.915239
 31
0.0
  0
LINE
  5
299
100
AcDbEntity
  8
2
  6
CONTINUOUS
 62
     7
100
AcDbLine
 10
737.702911
 20
1059.317639
 30
0.0
 11
735.702911
 21
1059.317639
 31
0.0
  0
LINE
  5
29A
100
AcDbEntity
  8
2
  6
CONTINUOUS
 62
     7
100
AcDbLine
 10
743.202911
 20
1058.317639
 30
0.0
 11
737.702911
 21
1059.316839
 31
0.0
  0
LINE
  5
29B
100
AcDbEntity
  8
2
  6
CONTINUOUS
 62
     7
100
AcDbLine
 10
735.702911
 20
1059.317639
 30
0.0
 11
730.202911
 21
1058.317639
 31
0.0
  0
LINE
  5
29C
100
AcDbEntity
  8
2
  6
CONTINUOUS
 62
     7
100
AcDbLine
 10
746.702911
 20
1070.817639
 30
0.0
 11
746.702911
 21
1045.317639
 31
0.0
  0
LINE
  5
29D
100
AcDbEntity
  8
2
  6
CONTINUOUS
 62
     7
100
AcDbLine
 10
746.702911
 20
1036.317639
 30
0.0
 11
746.702911
 21
1021.817639
 31
0.0
  0
LINE
  5
29E
100
AcDbEntity
  8
2
  6
CONTINUOUS
 62
     7
100
AcDbLine
 10
726.702911
 20
1041.317639
 30
0.0
 11
726.702911
 21
1021.817639
 31
0.0
  0
LINE
  5
29F
100
AcDbEntity
  8
2
  6
CONTINUOUS
 62
     7
100
AcDbLine
 10
726.702911
 20
1070.817639
 30
0.0
 11
726.702911
 21
1045.317639
 31
0.0
  0
LINE
  5
2A0
100
AcDbEntity
  8
2
  6
CONTINUOUS
 62
     7
100
AcDbLine
 10
737.702911
 20
1070.817639
 30
0.0
 11
735.702911
 21
1070.817639
 31
0.0
  0
LINE
  5
2A1
100
AcDbEntity
  8
2
  6
CONTINUOUS
 62
     7
100
AcDbLine
 10
747.202911
 20
1021.817639
 30
0.0
 11
746.702911
 21
1021.817639
 31
0.0
  0
LINE
  5
2A2
100
AcDbEntity
  8
2
  6
CONTINUOUS
 62
     7
100
AcDbLine
 10
746.702911
 20
1021.816839
 30
0.0
 11
745.202911
 21
1021.316839
 31
0.0
  0
LINE
  5
2A3
100
AcDbEntity
  8
2
  6
CONTINUOUS
 62
     7
100
AcDbLine
 10
747.202911
 20
1070.817639
 30
0.0
 11
746.702911
 21
1070.817639
 31
0.0
  0
LINE
  5
2A4
100
AcDbEntity
  8
2
  6
CONTINUOUS
 62
     7
100
AcDbLine
 10
726.702911
 20
1070.817639
 30
0.0
 11
726.202911
 21
1070.817639
 31
0.0
  0
LINE
  5
2A5
100
AcDbEntity
  8
2
  6
CONTINUOUS
 62
     7
100
AcDbLine
 10
726.702911
 20
1021.817639
 30
0.0
 11
726.202911
 21
1021.817639
 31
0.0
  0
LINE
  5
2A6
100
AcDbEntity
  8
2
  6
CONTINUOUS
 62
     7
100
AcDbLine
 10
728.202911
 20
1021.317639
 30
0.0
 11
726.702911
 21
1021.817639
 31
0.0
  0
LINE
  5
2A7
100
AcDbEntity
  8
2
  6
CONTINUOUS
 62
     7
100
AcDbLine
 10
736.702911
 20
981.317639
 30
0.0
 11
730.702911
 21
984.781639
 31
0.0
  0
LINE
  5
2A8
100
AcDbEntity
  8
2
  6
CONTINUOUS
 62
     7
100
AcDbLine
 10
730.702911
 20
984.781639
 30
0.0
 11
728.202911
 21
1021.317639
 31
0.0
  0
LINE
  5
2A9
100
AcDbEntity
  8
2
  6
CONTINUOUS
 62
     7
100
AcDbLine
 10
742.702911
 20
984.781639
 30
0.0
 11
745.202911
 21
1021.316839
 31
0.0
  0
LINE
  5
2AA
100
AcDbEntity
  8
2
  6
CONTINUOUS
 62
     7
100
AcDbLine
 10
736.702911
 20
981.316839
 30
0.0
 11
742.702911
 21
984.781639
 31
0.0
  0
LINE
  5
2AB
100
AcDbEntity
  8
2
  6
CONTINUOUS
 62
     7
100
AcDbLine
 10
742.840511
 20
1026.317639
 30
0.0
 11
736.702911
 21
1026.317639
 31
0.0
  0
LINE
  5
2AC
100
AcDbEntity
  8
2
  6
CONTINUOUS
 62
     7
100
AcDbLine
 10
742.840511
 20
1026.316839
 30
0.0
 11
743.746911
 21
1025.410439
 31
0.0
  0
LINE
  5
2AD
100
AcDbEntity
  8
2
  6
CONTINUOUS
 62
     7
100
AcDbLine
 10
730.565311
 20
1026.317639
 30
0.0
 11
736.702911
 21
1026.317639
 31
0.0
  0
LINE
  5
2AE
100
AcDbEntity
  8
2
  6
CONTINUOUS
 62
     7
100
AcDbLine
 10
730.565311
 20
1026.317639
 30
0.0
 11
729.658911
 21
1025.410439
 31
0.0
  0
LINE
  5
2AF
100
AcDbEntity
  8
2
  6
CONTINUOUS
 62
     7
100
AcDbLine
 10
738.702911
 20
1044.816839
 30
0.0
 11
738.702911
 21
1041.817639
 31
0.0
  0
LINE
  5
2B0
100
AcDbEntity
  8
2
  6
CONTINUOUS
 62
     7
100
AcDbLine
 10
734.702911
 20
1044.816839
 30
0.0
 11
734.702911
 21
1041.817639
 31
0.0
  0
LINE
  5
2B1
100
AcDbEntity
  8
2
  6
CONTINUOUS
 62
     7
100
AcDbLine
 10
738.723711
 20
1046.816839
 30
0.0
 11
740.744511
 21
1043.316839
 31
0.0
  0
LINE
  5
2B2
100
AcDbEntity
  8
2
  6
CONTINUOUS
 62
     7
100
AcDbLine
 10
740.744511
 20
1043.316839
 30
0.0
 11
738.723711
 21
1039.816839
 31
0.0
  0
LINE
  5
2B3
100
AcDbEntity
  8
2
  6
CONTINUOUS
 62
     7
100
AcDbLine
 10
734.682111
 20
1039.817639
 30
0.0
 11
738.723711
 21
1039.817639
 31
0.0
  0
LINE
  5
2B4
100
AcDbEntity
  8
2
  6
CONTINUOUS
 62
     7
100
AcDbLine
 10
732.661311
 20
1043.316839
 30
0.0
 11
734.682111
 21
1039.816839
 31
0.0
  0
LINE
  5
2B5
100
AcDbEntity
  8
2
  6
CONTINUOUS
 62
     7
100
AcDbLine
 10
734.682111
 20
1046.816839
 30
0.0
 11
732.661311
 21
1043.316839
 31
0.0
  0
LINE
  5
2B6
100
AcDbEntity
  8
2
  6
CONTINUOUS
 62
     7
100
AcDbLine
 10
738.723711
 20
1046.817639
 30
0.0
 11
734.682111
 21
1046.817639
 31
0.0
  0
LINE
  5
2B7
100
AcDbEntity
  8
2
  6
CONTINUOUS
 62
     7
100
AcDbLine
 10
743.702911
 20
1032.317639
 30
0.0
 11
729.702911
 21
1032.317639
 31
0.0
  0
LINE
  5
2B8
100
AcDbEntity
  8
2
  6
CONTINUOUS
 62
     7
100
AcDbLine
 10
743.702911
 20
1032.317639
 30
0.0
 11
744.702911
 21
1031.317639
 31
0.0
  0
LINE
  5
2B9
100
AcDbEntity
  8
2
  6
CONTINUOUS
 62
     7
100
AcDbLine
 10
729.702911
 20
1032.316839
 30
0.0
 11
728.702911
 21
1031.317639
 31
0.0
  0
LINE
  5
2BA
100
AcDbEntity
  8
2
  6
CONTINUOUS
 62
     7
100
AcDbLine
 10
747.202911
 20
1041.317639
 30
0.0
 11
743.702911
 21
1041.317639
 31
0.0
  0
LINE
  5
2BB
100
AcDbEntity
  8
2
  6
CONTINUOUS
 62
     7
100
AcDbLine
 10
729.702911
 20
1041.317639
 30
0.0
 11
726.202911
 21
1041.317639
 31
0.0
  0
LINE
  5
2BC
100
AcDbEntity
  8
2
  6
CONTINUOUS
 62
     7
100
AcDbLine
 10
729.994911
 20
1045.317639
 30
0.0
 11
726.202911
 21
1045.317639
 31
0.0
  0
LINE
  5
2BD
100
AcDbEntity
  8
2
  6
CONTINUOUS
 62
     7
100
AcDbLine
 10
747.202911
 20
1036.317639
 30
0.0
 11
743.702911
 21
1036.317639
 31
0.0
  0
LINE
  5
2BE
100
AcDbEntity
  8
2
  6
CONTINUOUS
 62
     7
100
AcDbLine
 10
743.202911
 20
1058.317639
 30
0.0
 11
743.202911
 21
1053.817639
 31
0.0
  0
LINE
  5
2BF
100
AcDbEntity
  8
2
  6
CONTINUOUS
 62
     7
100
AcDbLine
 10
745.202911
 20
1021.317639
 30
0.0
 11
744.702911
 21
1024.152839
 31
0.0
  0
LINE
  5
2C0
100
AcDbEntity
  8
2
  6
CONTINUOUS
 62
     7
100
AcDbLine
 10
744.702911
 20
1031.317639
 30
0.0
 11
744.702911
 21
1024.152839
 31
0.0
  0
LINE
  5
2C1
100
AcDbEntity
  8
2
  6
CONTINUOUS
 62
     7
100
AcDbLine
 10
728.702911
 20
1031.317639
 30
0.0
 11
728.702911
 21
1024.152839
 31
0.0
  0
LINE
  5
2C2
100
AcDbEntity
  8
2
  6
CONTINUOUS
 62
     7
100
AcDbLine
 10
728.202911
 20
1021.316839
 30
0.0
 11
728.702911
 21
1024.152839
 31
0.0
  0
LINE
  5
2C3
100
AcDbEntity
  8
2
  6
CONTINUOUS
 62
     7
100
AcDbLine
 10
1327.702911
 20
1108.016839
 30
0.0
 11
1332.702911
 21
1108.016839
 31
0.0
  0
LINE
  5
2C4
100
AcDbEntity
  8
2
  6
CENTER
 62
     7
100
AcDbLine
 10
1336.702911
 20
1169.007239
 30
0.0
 11
1336.702911
 21
1094.317639
 31
0.0
  0
LINE
  5
2C5
100
AcDbEntity
  8
2
  6
CONTINUOUS
 62
     7
100
AcDbLine
 10
1345.702911
 20
1108.016839
 30
0.0
 11
1340.702911
 21
1108.016839
 31
0.0
  0
LINE
  5
2C6
100
AcDbEntity
  8
2
  6
CENTER
 62
     7
100
AcDbLine
 10
1293.822111
 20
855.731239
 30
0.0
 11
1293.822111
 21
737.584839
 31
0.0
  0
LINE
  5
2C7
100
AcDbEntity
  8
2
  6
CENTER
 62
     7
100
AcDbLine
 10
1304.856511
 20
797.167239
 30
0.0
 11
1233.561311
 21
797.167239
 31
0.0
  0
LINE
  5
2C8
100
AcDbEntity
  8
2
  6
CENTER
 62
     7
100
AcDbLine
 10
1303.158911
 20
787.831239
 30
0.0
 11
1251.045311
 21
839.944039
 31
0.0
  0
LINE
  5
2C9
100
AcDbEntity
  8
2
  6
CENTER
 62
     7
100
AcDbLine
 10
1251.724511
 20
755.068839
 30
0.0
 11
1304.516511
 21
807.860839
 31
0.0
  0
LINE
  5
2CA
100
AcDbEntity
  8
2
  6
CONTINUOUS
 62
     7
100
AcDbLine
 10
216.202911
 20
1086.317639
 30
0.0
 11
216.202911
 21
936.317639
 31
0.0
  0
LINE
  5
2CB
100
AcDbEntity
  8
2
  6
CONTINUOUS
 62
     7
100
AcDbLine
 10
248.202911
 20
1086.317639
 30
0.0
 11
248.202911
 21
936.317639
 31
0.0
  0
LINE
  5
2CC
100
AcDbEntity
  8
2
  6
CONTINUOUS
 62
     7
100
AcDbLine
 10
216.202911
 20
936.317639
 30
0.0
 11
248.202911
 21
936.317639
 31
0.0
  0
LINE
  5
2CD
100
AcDbEntity
  8
2
  6
CONTINUOUS
 62
     7
100
AcDbLine
 10
216.202911
 20
1083.317639
 30
0.0
 11
248.202911
 21
1083.317639
 31
0.0
  0
LINE
  5
2CE
100
AcDbEntity
  8
2
  6
CONTINUOUS
 62
     7
100
AcDbLine
 10
218.202911
 20
1081.316839
 30
0.0
 11
218.202911
 21
980.135239
 31
0.0
  0
LINE
  5
2CF
100
AcDbEntity
  8
2
  6
CONTINUOUS
 62
     7
100
AcDbLine
 10
218.202911
 20
980.135239
 30
0.0
 11
227.202911
 21
988.317639
 31
0.0
  0
LINE
  5
2D0
100
AcDbEntity
  8
2
  6
CONTINUOUS
 62
     7
100
AcDbLine
 10
218.202911
 20
996.499239
 30
0.0
 11
227.202911
 21
988.317639
 31
0.0
  0
LINE
  5
2D1
100
AcDbEntity
  8
2
  6
CONTINUOUS
 62
     7
100
AcDbLine
 10
216.202911
 20
980.135239
 30
0.0
 11
218.202911
 21
980.135239
 31
0.0
  0
LINE
  5
2D2
100
AcDbEntity
  8
2
  6
CONTINUOUS
 62
     7
100
AcDbLine
 10
218.202911
 20
1081.316839
 30
0.0
 11
244.452511
 21
1081.316839
 31
0.0
  0
LINE
  5
2D3
100
AcDbEntity
  8
2
  6
CONTINUOUS
 62
     7
100
AcDbLine
 10
218.202911
 20
1081.317639
 30
0.0
 11
216.202911
 21
1083.316839
 31
0.0
  0
LINE
  5
2D4
100
AcDbEntity
  8
2
  6
CONTINUOUS
 62
     7
100
AcDbLine
 10
234.202911
 20
1070.317639
 30
0.0
 11
239.202911
 21
1070.317639
 31
0.0
  0
LINE
  5
2D5
100
AcDbEntity
  8
2
  6
CONTINUOUS
 62
     7
100
AcDbLine
 10
244.452511
 20
1083.317639
 30
0.0
 11
244.452511
 21
1081.316839
 31
0.0
  0
LINE
  5
2D6
100
AcDbEntity
  8
2
  6
CONTINUOUS
 62
     7
100
AcDbLine
 10
228.952511
 20
1083.317639
 30
0.0
 11
228.952511
 21
1081.316839
 31
0.0
  0
LINE
  5
2D7
100
AcDbEntity
  8
2
  6
CONTINUOUS
 62
     7
100
AcDbLine
 10
233.702911
 20
1076.317639
 30
0.0
 11
233.702911
 21
1070.816839
 31
0.0
  0
LINE
  5
2D8
100
AcDbEntity
  8
2
  6
CONTINUOUS
 62
     7
100
AcDbLine
 10
239.702911
 20
1076.317639
 30
0.0
 11
239.702911
 21
1070.816839
 31
0.0
  0
LINE
  5
2D9
100
AcDbEntity
  8
2
  6
CONTINUOUS
 62
     7
100
AcDbLine
 10
231.702911
 20
1081.316839
 30
0.0
 11
231.702911
 21
1076.817639
 31
0.0
  0
LINE
  5
2DA
100
AcDbEntity
  8
2
  6
CONTINUOUS
 62
     7
100
AcDbLine
 10
232.202911
 20
1076.317639
 30
0.0
 11
236.702911
 21
1076.317639
 31
0.0
  0
LINE
  5
2DB
100
AcDbEntity
  8
2
  6
CONTINUOUS
 62
     7
100
AcDbLine
 10
234.202911
 20
1081.316839
 30
0.0
 11
234.202911
 21
1076.817639
 31
0.0
  0
LINE
  5
2DC
100
AcDbEntity
  8
2
  6
CONTINUOUS
 62
     7
100
AcDbLine
 10
231.702911
 20
1076.816839
 30
0.0
 11
232.202911
 21
1076.317639
 31
0.0
  0
LINE
  5
2DD
100
AcDbEntity
  8
2
  6
CONTINUOUS
 62
     7
100
AcDbLine
 10
241.702911
 20
1081.316839
 30
0.0
 11
241.702911
 21
1076.817639
 31
0.0
  0
LINE
  5
2DE
100
AcDbEntity
  8
2
  6
CONTINUOUS
 62
     7
100
AcDbLine
 10
241.702911
 20
1076.817639
 30
0.0
 11
241.202911
 21
1076.317639
 31
0.0
  0
LINE
  5
2DF
100
AcDbEntity
  8
2
  6
CONTINUOUS
 62
     7
100
AcDbLine
 10
241.202911
 20
1076.317639
 30
0.0
 11
236.702911
 21
1076.317639
 31
0.0
  0
LINE
  5
2E0
100
AcDbEntity
  8
2
  6
CONTINUOUS
 62
     7
100
AcDbLine
 10
239.202911
 20
1081.316839
 30
0.0
 11
239.202911
 21
1076.817639
 31
0.0
  0
LINE
  5
2E1
100
AcDbEntity
  8
2
  6
CONTINUOUS
 62
     7
100
AcDbLine
 10
233.702911
 20
1070.816839
 30
0.0
 11
234.202911
 21
1070.317639
 31
0.0
  0
LINE
  5
2E2
100
AcDbEntity
  8
2
  6
CONTINUOUS
 62
     7
100
AcDbLine
 10
239.202911
 20
1070.317639
 30
0.0
 11
239.702911
 21
1070.817639
 31
0.0
  0
LINE
  5
2E3
100
AcDbEntity
  8
2
  6
CONTINUOUS
 62
     7
100
AcDbLine
 10
916.202911
 20
1086.317639
 30
0.0
 11
916.202911
 21
936.317639
 31
0.0
  0
LINE
  5
2E4
100
AcDbEntity
  8
2
  6
CONTINUOUS
 62
     7
100
AcDbLine
 10
948.202911
 20
1086.317639
 30
0.0
 11
948.202911
 21
936.317639
 31
0.0
  0
LINE
  5
2E5
100
AcDbEntity
  8
2
  6
CONTINUOUS
 62
     7
100
AcDbLine
 10
916.202911
 20
936.317639
 30
0.0
 11
948.202911
 21
936.317639
 31
0.0
  0
LINE
  5
2E6
100
AcDbEntity
  8
2
  6
CONTINUOUS
 62
     7
100
AcDbLine
 10
916.202911
 20
1083.317639
 30
0.0
 11
948.202911
 21
1083.317639
 31
0.0
  0
LINE
  5
2E7
100
AcDbEntity
  8
2
  6
CONTINUOUS
 62
     7
100
AcDbLine
 10
918.202911
 20
1081.316839
 30
0.0
 11
918.202911
 21
980.135239
 31
0.0
  0
LINE
  5
2E8
100
AcDbEntity
  8
2
  6
CONTINUOUS
 62
     7
100
AcDbLine
 10
918.202911
 20
980.135239
 30
0.0
 11
927.202911
 21
988.317639
 31
0.0
  0
LINE
  5
2E9
100
AcDbEntity
  8
2
  6
CONTINUOUS
 62
     7
100
AcDbLine
 10
918.202911
 20
996.499239
 30
0.0
 11
927.202911
 21
988.317639
 31
0.0
  0
LINE
  5
2EA
100
AcDbEntity
  8
2
  6
CONTINUOUS
 62
     7
100
AcDbLine
 10
916.202911
 20
980.135239
 30
0.0
 11
918.202911
 21
980.135239
 31
0.0
  0
LINE
  5
2EB
100
AcDbEntity
  8
2
  6
CONTINUOUS
 62
     7
100
AcDbLine
 10
918.202911
 20
1081.316839
 30
0.0
 11
944.452511
 21
1081.316839
 31
0.0
  0
LINE
  5
2EC
100
AcDbEntity
  8
2
  6
CONTINUOUS
 62
     7
100
AcDbLine
 10
918.202911
 20
1081.317639
 30
0.0
 11
916.202911
 21
1083.316839
 31
0.0
  0
LINE
  5
2ED
100
AcDbEntity
  8
2
  6
CONTINUOUS
 62
     7
100
AcDbLine
 10
934.202911
 20
1070.317639
 30
0.0
 11
939.202911
 21
1070.317639
 31
0.0
  0
LINE
  5
2EE
100
AcDbEntity
  8
2
  6
CONTINUOUS
 62
     7
100
AcDbLine
 10
944.452511
 20
1083.317639
 30
0.0
 11
944.452511
 21
1081.316839
 31
0.0
  0
LINE
  5
2EF
100
AcDbEntity
  8
2
  6
CONTINUOUS
 62
     7
100
AcDbLine
 10
928.952511
 20
1083.317639
 30
0.0
 11
928.952511
 21
1081.316839
 31
0.0
  0
LINE
  5
2F0
100
AcDbEntity
  8
2
  6
CONTINUOUS
 62
     7
100
AcDbLine
 10
933.702911
 20
1076.317639
 30
0.0
 11
933.702911
 21
1070.816839
 31
0.0
  0
LINE
  5
2F1
100
AcDbEntity
  8
2
  6
CONTINUOUS
 62
     7
100
AcDbLine
 10
939.702911
 20
1076.317639
 30
0.0
 11
939.702911
 21
1070.816839
 31
0.0
  0
LINE
  5
2F2
100
AcDbEntity
  8
2
  6
CONTINUOUS
 62
     7
100
AcDbLine
 10
931.702911
 20
1081.316839
 30
0.0
 11
931.702911
 21
1076.817639
 31
0.0
  0
LINE
  5
2F3
100
AcDbEntity
  8
2
  6
CONTINUOUS
 62
     7
100
AcDbLine
 10
932.202911
 20
1076.317639
 30
0.0
 11
936.702911
 21
1076.317639
 31
0.0
  0
LINE
  5
2F4
100
AcDbEntity
  8
2
  6
CONTINUOUS
 62
     7
100
AcDbLine
 10
934.202911
 20
1081.316839
 30
0.0
 11
934.202911
 21
1076.817639
 31
0.0
  0
LINE
  5
2F5
100
AcDbEntity
  8
2
  6
CONTINUOUS
 62
     7
100
AcDbLine
 10
931.702911
 20
1076.816839
 30
0.0
 11
932.202911
 21
1076.317639
 31
0.0
  0
LINE
  5
2F6
100
AcDbEntity
  8
2
  6
CONTINUOUS
 62
     7
100
AcDbLine
 10
941.702911
 20
1081.316839
 30
0.0
 11
941.702911
 21
1076.817639
 31
0.0
  0
LINE
  5
2F7
100
AcDbEntity
  8
2
  6
CONTINUOUS
 62
     7
100
AcDbLine
 10
941.702911
 20
1076.817639
 30
0.0
 11
941.202911
 21
1076.317639
 31
0.0
  0
LINE
  5
2F8
100
AcDbEntity
  8
2
  6
CONTINUOUS
 62
     7
100
AcDbLine
 10
941.202911
 20
1076.317639
 30
0.0
 11
936.702911
 21
1076.317639
 31
0.0
  0
LINE
  5
2F9
100
AcDbEntity
  8
2
  6
CONTINUOUS
 62
     7
100
AcDbLine
 10
939.202911
 20
1081.316839
 30
0.0
 11
939.202911
 21
1076.817639
 31
0.0
  0
LINE
  5
2FA
100
AcDbEntity
  8
2
  6
CONTINUOUS
 62
     7
100
AcDbLine
 10
933.702911
 20
1070.816839
 30
0.0
 11
934.202911
 21
1070.317639
 31
0.0
  0
LINE
  5
2FB
100
AcDbEntity
  8
2
  6
CONTINUOUS
 62
     7
100
AcDbLine
 10
939.202911
 20
1070.317639
 30
0.0
 11
939.702911
 21
1070.817639
 31
0.0
  0
LINE
  5
2FC
100
AcDbEntity
  8
2
  6
CENTER
 62
     7
100
AcDbLine
 10
936.702911
 20
1114.816839
 30
0.0
 11
936.702911
 21
1059.596839
 31
0.0
  0
LINE
  5
2FD
100
AcDbEntity
  8
2
  6
CONTINUOUS
 62
     7
100
AcDbLine
 10
2106.816511
 20
786.317639
 30
0.0
 11
2106.816511
 21
636.317639
 31
0.0
  0
LINE
  5
2FE
100
AcDbEntity
  8
2
  6
CONTINUOUS
 62
     7
100
AcDbLine
 10
2138.816511
 20
786.317639
 30
0.0
 11
2138.816511
 21
636.317639
 31
0.0
  0
LINE
  5
2FF
100
AcDbEntity
  8
2
  6
CONTINUOUS
 62
     7
100
AcDbLine
 10
2106.816511
 20
636.317639
 30
0.0
 11
2138.816511
 21
636.317639
 31
0.0
  0
LINE
  5
300
100
AcDbEntity
  8
2
  6
CONTINUOUS
 62
     7
100
AcDbLine
 10
2106.816511
 20
783.316839
 30
0.0
 11
2138.816511
 21
783.316839
 31
0.0
  0
LINE
  5
301
100
AcDbEntity
  8
2
  6
CONTINUOUS
 62
     7
100
AcDbLine
 10
2108.816511
 20
781.316839
 30
0.0
 11
2108.816511
 21
680.135239
 31
0.0
  0
LINE
  5
302
100
AcDbEntity
  8
2
  6
CONTINUOUS
 62
     7
100
AcDbLine
 10
2108.816511
 20
680.135239
 30
0.0
 11
2117.816511
 21
688.317639
 31
0.0
  0
LINE
  5
303
100
AcDbEntity
  8
2
  6
CONTINUOUS
 62
     7
100
AcDbLine
 10
2108.816511
 20
696.499239
 30
0.0
 11
2117.816511
 21
688.317639
 31
0.0
  0
LINE
  5
304
100
AcDbEntity
  8
2
  6
CONTINUOUS
 62
     7
100
AcDbLine
 10
2106.816511
 20
680.135239
 30
0.0
 11
2108.816511
 21
680.135239
 31
0.0
  0
LINE
  5
305
100
AcDbEntity
  8
2
  6
CONTINUOUS
 62
     7
100
AcDbLine
 10
2108.816511
 20
781.316839
 30
0.0
 11
2135.066911
 21
781.316839
 31
0.0
  0
LINE
  5
306
100
AcDbEntity
  8
2
  6
CONTINUOUS
 62
     7
100
AcDbLine
 10
2108.816511
 20
781.317639
 30
0.0
 11
2106.816511
 21
783.316839
 31
0.0
  0
LINE
  5
307
100
AcDbEntity
  8
2
  6
CONTINUOUS
 62
     7
100
AcDbLine
 10
2124.816511
 20
770.317639
 30
0.0
 11
2129.816511
 21
770.317639
 31
0.0
  0
LINE
  5
308
100
AcDbEntity
  8
2
  6
CONTINUOUS
 62
     7
100
AcDbLine
 10
2135.066911
 20
783.316839
 30
0.0
 11
2135.066911
 21
781.316839
 31
0.0
  0
LINE
  5
309
100
AcDbEntity
  8
2
  6
CONTINUOUS
 62
     7
100
AcDbLine
 10
2119.566911
 20
783.316839
 30
0.0
 11
2119.566911
 21
781.316839
 31
0.0
  0
LINE
  5
30A
100
AcDbEntity
  8
2
  6
CONTINUOUS
 62
     7
100
AcDbLine
 10
2124.316511
 20
776.317639
 30
0.0
 11
2124.316511
 21
770.816839
 31
0.0
  0
LINE
  5
30B
100
AcDbEntity
  8
2
  6
CONTINUOUS
 62
     7
100
AcDbLine
 10
2130.316511
 20
776.317639
 30
0.0
 11
2130.316511
 21
770.816839
 31
0.0
  0
LINE
  5
30C
100
AcDbEntity
  8
2
  6
CONTINUOUS
 62
     7
100
AcDbLine
 10
2122.316511
 20
781.316839
 30
0.0
 11
2122.316511
 21
776.816839
 31
0.0
  0
LINE
  5
30D
100
AcDbEntity
  8
2
  6
CONTINUOUS
 62
     7
100
AcDbLine
 10
2122.816511
 20
776.317639
 30
0.0
 11
2127.316511
 21
776.317639
 31
0.0
  0
LINE
  5
30E
100
AcDbEntity
  8
2
  6
CONTINUOUS
 62
     7
100
AcDbLine
 10
2124.816511
 20
781.316839
 30
0.0
 11
2124.816511
 21
776.816839
 31
0.0
  0
LINE
  5
30F
100
AcDbEntity
  8
2
  6
CONTINUOUS
 62
     7
100
AcDbLine
 10
2122.316511
 20
776.816839
 30
0.0
 11
2122.816511
 21
776.317639
 31
0.0
  0
LINE
  5
310
100
AcDbEntity
  8
2
  6
CONTINUOUS
 62
     7
100
AcDbLine
 10
2132.316511
 20
781.316839
 30
0.0
 11
2132.316511
 21
776.816839
 31
0.0
  0
LINE
  5
311
100
AcDbEntity
  8
2
  6
CONTINUOUS
 62
     7
100
AcDbLine
 10
2132.316511
 20
776.817639
 30
0.0
 11
2131.816511
 21
776.317639
 31
0.0
  0
LINE
  5
312
100
AcDbEntity
  8
2
  6
CONTINUOUS
 62
     7
100
AcDbLine
 10
2131.816511
 20
776.317639
 30
0.0
 11
2127.316511
 21
776.317639
 31
0.0
  0
LINE
  5
313
100
AcDbEntity
  8
2
  6
CONTINUOUS
 62
     7
100
AcDbLine
 10
2129.816511
 20
781.316839
 30
0.0
 11
2129.816511
 21
776.816839
 31
0.0
  0
LINE
  5
314
100
AcDbEntity
  8
2
  6
CONTINUOUS
 62
     7
100
AcDbLine
 10
2124.316511
 20
770.816839
 30
0.0
 11
2124.816511
 21
770.317639
 31
0.0
  0
LINE
  5
315
100
AcDbEntity
  8
2
  6
CONTINUOUS
 62
     7
100
AcDbLine
 10
2129.816511
 20
770.316839
 30
0.0
 11
2130.316511
 21
770.816839
 31
0.0
  0
LINE
  5
316
100
AcDbEntity
  8
2
  6
CENTER
 62
     7
100
AcDbLine
 10
2127.316511
 20
814.816839
 30
0.0
 11
2127.316511
 21
759.596839
 31
0.0
  0
LINE
  5
317
100
AcDbEntity
  8
2
  6
CONTINUOUS
 62
     7
100
AcDbLine
 10
1456.816511
 20
786.317639
 30
0.0
 11
1456.816511
 21
636.317639
 31
0.0
  0
LINE
  5
318
100
AcDbEntity
  8
2
  6
CONTINUOUS
 62
     7
100
AcDbLine
 10
1488.816511
 20
786.317639
 30
0.0
 11
1488.816511
 21
636.317639
 31
0.0
  0
LINE
  5
319
100
AcDbEntity
  8
2
  6
CONTINUOUS
 62
     7
100
AcDbLine
 10
1456.816511
 20
636.317639
 30
0.0
 11
1488.816511
 21
636.317639
 31
0.0
  0
LINE
  5
31A
100
AcDbEntity
  8
2
  6
CONTINUOUS
 62
     7
100
AcDbLine
 10
1456.816511
 20
783.316839
 30
0.0
 11
1488.816511
 21
783.316839
 31
0.0
  0
LINE
  5
31B
100
AcDbEntity
  8
2
  6
CONTINUOUS
 62
     7
100
AcDbLine
 10
1458.816511
 20
781.316839
 30
0.0
 11
1458.816511
 21
680.135239
 31
0.0
  0
LINE
  5
31C
100
AcDbEntity
  8
2
  6
CONTINUOUS
 62
     7
100
AcDbLine
 10
1458.816511
 20
680.135239
 30
0.0
 11
1467.816511
 21
688.316839
 31
0.0
  0
LINE
  5
31D
100
AcDbEntity
  8
2
  6
CONTINUOUS
 62
     7
100
AcDbLine
 10
1458.816511
 20
696.499239
 30
0.0
 11
1467.816511
 21
688.316839
 31
0.0
  0
LINE
  5
31E
100
AcDbEntity
  8
2
  6
CONTINUOUS
 62
     7
100
AcDbLine
 10
1456.816511
 20
680.135239
 30
0.0
 11
1458.816511
 21
680.135239
 31
0.0
  0
LINE
  5
31F
100
AcDbEntity
  8
2
  6
CONTINUOUS
 62
     7
100
AcDbLine
 10
1458.816511
 20
781.316839
 30
0.0
 11
1485.066911
 21
781.316839
 31
0.0
  0
LINE
  5
320
100
AcDbEntity
  8
2
  6
CONTINUOUS
 62
     7
100
AcDbLine
 10
1458.816511
 20
781.317639
 30
0.0
 11
1456.816511
 21
783.317639
 31
0.0
  0
LINE
  5
321
100
AcDbEntity
  8
2
  6
CONTINUOUS
 62
     7
100
AcDbLine
 10
1474.816511
 20
770.317639
 30
0.0
 11
1479.816511
 21
770.317639
 31
0.0
  0
LINE
  5
322
100
AcDbEntity
  8
2
  6
CONTINUOUS
 62
     7
100
AcDbLine
 10
1485.066911
 20
783.316839
 30
0.0
 11
1485.066911
 21
781.316839
 31
0.0
  0
LINE
  5
323
100
AcDbEntity
  8
2
  6
CONTINUOUS
 62
     7
100
AcDbLine
 10
1469.566911
 20
783.316839
 30
0.0
 11
1469.566911
 21
781.316839
 31
0.0
  0
LINE
  5
324
100
AcDbEntity
  8
2
  6
CONTINUOUS
 62
     7
100
AcDbLine
 10
1474.316511
 20
776.317639
 30
0.0
 11
1474.316511
 21
770.816839
 31
0.0
  0
LINE
  5
325
100
AcDbEntity
  8
2
  6
CONTINUOUS
 62
     7
100
AcDbLine
 10
1480.316511
 20
776.317639
 30
0.0
 11
1480.316511
 21
770.816839
 31
0.0
  0
LINE
  5
326
100
AcDbEntity
  8
2
  6
CONTINUOUS
 62
     7
100
AcDbLine
 10
1472.316511
 20
781.316839
 30
0.0
 11
1472.316511
 21
776.816839
 31
0.0
  0
LINE
  5
327
100
AcDbEntity
  8
2
  6
CONTINUOUS
 62
     7
100
AcDbLine
 10
1472.816511
 20
776.317639
 30
0.0
 11
1477.316511
 21
776.317639
 31
0.0
  0
LINE
  5
328
100
AcDbEntity
  8
2
  6
CONTINUOUS
 62
     7
100
AcDbLine
 10
1474.816511
 20
781.316839
 30
0.0
 11
1474.816511
 21
776.816839
 31
0.0
  0
LINE
  5
329
100
AcDbEntity
  8
2
  6
CONTINUOUS
 62
     7
100
AcDbLine
 10
1472.316511
 20
776.816839
 30
0.0
 11
1472.816511
 21
776.317639
 31
0.0
  0
LINE
  5
32A
100
AcDbEntity
  8
2
  6
CONTINUOUS
 62
     7
100
AcDbLine
 10
1482.316511
 20
781.316839
 30
0.0
 11
1482.316511
 21
776.816839
 31
0.0
  0
LINE
  5
32B
100
AcDbEntity
  8
2
  6
CONTINUOUS
 62
     7
100
AcDbLine
 10
1482.316511
 20
776.817639
 30
0.0
 11
1481.816511
 21
776.317639
 31
0.0
  0
LINE
  5
32C
100
AcDbEntity
  8
2
  6
CONTINUOUS
 62
     7
100
AcDbLine
 10
1481.816511
 20
776.317639
 30
0.0
 11
1477.316511
 21
776.317639
 31
0.0
  0
LINE
  5
32D
100
AcDbEntity
  8
2
  6
CONTINUOUS
 62
     7
100
AcDbLine
 10
1479.816511
 20
781.316839
 30
0.0
 11
1479.816511
 21
776.816839
 31
0.0
  0
LINE
  5
32E
100
AcDbEntity
  8
2
  6
CONTINUOUS
 62
     7
100
AcDbLine
 10
1474.316511
 20
770.816839
 30
0.0
 11
1474.816511
 21
770.317639
 31
0.0
  0
LINE
  5
32F
100
AcDbEntity
  8
2
  6
CONTINUOUS
 62
     7
100
AcDbLine
 10
1479.816511
 20
770.317639
 30
0.0
 11
1480.316511
 21
770.817639
 31
0.0
  0
LINE
  5
330
100
AcDbEntity
  8
2
  6
CENTER
 62
     7
100
AcDbLine
 10
1477.316511
 20
814.816839
 30
0.0
 11
1477.316511
 21
759.596839
 31
0.0
  0
LINE
  5
331
100
AcDbEntity
  8
2
  6
CONTINUOUS
 62
     7
100
AcDbLine
 10
1529.702911
 20
1036.317639
 30
0.0
 11
1529.702911
 21
1032.316839
 31
0.0
  0
LINE
  5
332
100
AcDbEntity
  8
2
  6
HIDDEN
 62
     7
100
AcDbLine
 10
1529.702911
 20
1041.317639
 30
0.0
 11
1529.702911
 21
1036.317639
 31
0.0
  0
LINE
  5
333
100
AcDbEntity
  8
2
  6
CONTINUOUS
 62
     7
100
AcDbLine
 10
1529.702911
 20
1043.317639
 30
0.0
 11
1529.702911
 21
1041.317639
 31
0.0
  0
LINE
  5
334
100
AcDbEntity
  8
2
  6
CONTINUOUS
 62
     7
100
AcDbLine
 10
1536.702911
 20
1050.317639
 30
0.0
 11
1538.702911
 21
1050.317639
 31
0.0
  0
LINE
  5
335
100
AcDbEntity
  8
2
  6
CONTINUOUS
 62
     7
100
AcDbLine
 10
1538.702911
 20
1053.817639
 30
0.0
 11
1538.702911
 21
1050.317639
 31
0.0
  0
LINE
  5
336
100
AcDbEntity
  8
2
  6
CONTINUOUS
 62
     7
100
AcDbLine
 10
1538.702911
 20
1053.817639
 30
0.0
 11
1543.702911
 21
1053.817639
 31
0.0
  0
LINE
  5
337
100
AcDbEntity
  8
2
  6
HIDDEN
 62
     7
100
AcDbLine
 10
1538.702911
 20
1050.317639
 30
0.0
 11
1543.702911
 21
1050.317639
 31
0.0
  0
LINE
  5
338
100
AcDbEntity
  8
2
  6
CONTINUOUS
 62
     7
100
AcDbLine
 10
1543.702911
 20
1053.817639
 30
0.0
 11
1543.702911
 21
1032.316839
 31
0.0
  0
LINE
  5
339
100
AcDbEntity
  8
2
  6
CONTINUOUS
 62
     7
100
AcDbLine
 10
1129.702911
 20
1036.317639
 30
0.0
 11
1129.702911
 21
1032.316839
 31
0.0
  0
LINE
  5
33A
100
AcDbEntity
  8
2
  6
HIDDEN
 62
     7
100
AcDbLine
 10
1129.702911
 20
1041.317639
 30
0.0
 11
1129.702911
 21
1036.317639
 31
0.0
  0
LINE
  5
33B
100
AcDbEntity
  8
2
  6
CONTINUOUS
 62
     7
100
AcDbLine
 10
1129.702911
 20
1043.317639
 30
0.0
 11
1129.702911
 21
1041.317639
 31
0.0
  0
LINE
  5
33C
100
AcDbEntity
  8
2
  6
CONTINUOUS
 62
     7
100
AcDbLine
 10
1136.702911
 20
1050.317639
 30
0.0
 11
1138.702911
 21
1050.317639
 31
0.0
  0
LINE
  5
33D
100
AcDbEntity
  8
2
  6
CONTINUOUS
 62
     7
100
AcDbLine
 10
1138.702911
 20
1053.817639
 30
0.0
 11
1138.702911
 21
1050.317639
 31
0.0
  0
LINE
  5
33E
100
AcDbEntity
  8
2
  6
CONTINUOUS
 62
     7
100
AcDbLine
 10
1138.702911
 20
1053.817639
 30
0.0
 11
1143.702911
 21
1053.817639
 31
0.0
  0
LINE
  5
33F
100
AcDbEntity
  8
2
  6
HIDDEN
 62
     7
100
AcDbLine
 10
1138.702911
 20
1050.317639
 30
0.0
 11
1143.702911
 21
1050.317639
 31
0.0
  0
LINE
  5
340
100
AcDbEntity
  8
2
  6
CONTINUOUS
 62
     7
100
AcDbLine
 10
1143.702911
 20
1053.817639
 30
0.0
 11
1143.702911
 21
1032.316839
 31
0.0
  0
LINE
  5
341
100
AcDbEntity
  8
2
  6
CONTINUOUS
 62
     7
100
AcDbLine
 10
729.702911
 20
1036.317639
 30
0.0
 11
729.702911
 21
1032.316839
 31
0.0
  0
LINE
  5
342
100
AcDbEntity
  8
2
  6
HIDDEN
 62
     7
100
AcDbLine
 10
729.702911
 20
1041.317639
 30
0.0
 11
729.702911
 21
1036.317639
 31
0.0
  0
LINE
  5
343
100
AcDbEntity
  8
2
  6
CONTINUOUS
 62
     7
100
AcDbLine
 10
729.702911
 20
1043.317639
 30
0.0
 11
729.702911
 21
1041.317639
 31
0.0
  0
LINE
  5
344
100
AcDbEntity
  8
2
  6
CONTINUOUS
 62
     7
100
AcDbLine
 10
736.702911
 20
1050.317639
 30
0.0
 11
738.702911
 21
1050.317639
 31
0.0
  0
LINE
  5
345
100
AcDbEntity
  8
2
  6
CONTINUOUS
 62
     7
100
AcDbLine
 10
738.702911
 20
1053.817639
 30
0.0
 11
738.702911
 21
1050.317639
 31
0.0
  0
LINE
  5
346
100
AcDbEntity
  8
2
  6
CONTINUOUS
 62
     7
100
AcDbLine
 10
738.702911
 20
1053.817639
 30
0.0
 11
743.702911
 21
1053.817639
 31
0.0
  0
LINE
  5
347
100
AcDbEntity
  8
2
  6
HIDDEN
 62
     7
100
AcDbLine
 10
738.702911
 20
1050.317639
 30
0.0
 11
743.702911
 21
1050.317639
 31
0.0
  0
LINE
  5
348
100
AcDbEntity
  8
2
  6
CONTINUOUS
 62
     7
100
AcDbLine
 10
743.702911
 20
1053.817639
 30
0.0
 11
743.702911
 21
1032.316839
 31
0.0
  0
LINE
  5
349
100
AcDbEntity
  8
2
  6
CONTINUOUS
 62
     7
100
AcDbLine
 10
329.702911
 20
1036.317639
 30
0.0
 11
329.702911
 21
1032.316839
 31
0.0
  0
LINE
  5
34A
100
AcDbEntity
  8
2
  6
HIDDEN
 62
     7
100
AcDbLine
 10
329.702911
 20
1041.317639
 30
0.0
 11
329.702911
 21
1036.317639
 31
0.0
  0
LINE
  5
34B
100
AcDbEntity
  8
2
  6
CONTINUOUS
 62
     7
100
AcDbLine
 10
329.702911
 20
1043.317639
 30
0.0
 11
329.702911
 21
1041.317639
 31
0.0
  0
LINE
  5
34C
100
AcDbEntity
  8
2
  6
CONTINUOUS
 62
     7
100
AcDbLine
 10
336.702911
 20
1050.317639
 30
0.0
 11
338.702911
 21
1050.317639
 31
0.0
  0
LINE
  5
34D
100
AcDbEntity
  8
2
  6
CONTINUOUS
 62
     7
100
AcDbLine
 10
338.702911
 20
1053.817639
 30
0.0
 11
338.702911
 21
1050.317639
 31
0.0
  0
LINE
  5
34E
100
AcDbEntity
  8
2
  6
CONTINUOUS
 62
     7
100
AcDbLine
 10
338.702911
 20
1053.817639
 30
0.0
 11
343.702911
 21
1053.817639
 31
0.0
  0
LINE
  5
34F
100
AcDbEntity
  8
2
  6
HIDDEN
 62
     7
100
AcDbLine
 10
338.702911
 20
1050.317639
 30
0.0
 11
343.702911
 21
1050.317639
 31
0.0
  0
LINE
  5
350
100
AcDbEntity
  8
2
  6
CONTINUOUS
 62
     7
100
AcDbLine
 10
343.702911
 20
1053.817639
 30
0.0
 11
343.702911
 21
1032.316839
 31
0.0
  0
LINE
  5
351
100
AcDbEntity
  8
2
  6
CONTINUOUS
 62
     7
100
AcDbLine
 10
1527.702911
 20
1086.317639
 30
0.0
 11
1145.702911
 21
1086.317639
 31
0.0
  0
LINE
  5
352
100
AcDbEntity
  8
2
  6
CONTINUOUS
 62
     7
100
AcDbLine
 10
1127.702911
 20
1086.317639
 30
0.0
 11
745.702911
 21
1086.317639
 31
0.0
  0
LINE
  5
353
100
AcDbEntity
  8
2
  6
CONTINUOUS
 62
     7
100
AcDbLine
 10
727.702911
 20
1086.317639
 30
0.0
 11
345.702911
 21
1086.317639
 31
0.0
  0
LINE
  5
354
100
AcDbEntity
  8
2
  6
CENTER
 62
     7
100
AcDbLine
 10
236.702911
 20
1122.667239
 30
0.0
 11
236.702911
 21
1071.667239
 31
0.0
  0
LINE
  5
355
100
AcDbEntity
  8
2
  6
CONTINUOUS
 62
     7
100
AcDbLine
 10
2736.316511
 20
786.316839
 30
0.0
 11
2902.316511
 21
786.316839
 31
0.0
  0
LINE
  5
356
100
AcDbEntity
  8
2
  6
CONTINUOUS
 62
     7
100
AcDbLine
 10
2336.316511
 20
786.316839
 30
0.0
 11
2718.316511
 21
786.316839
 31
0.0
  0
LINE
  5
357
100
AcDbEntity
  8
2
  6
CONTINUOUS
 62
     7
100
AcDbLine
 10
1936.316511
 20
786.316839
 30
0.0
 11
2318.316511
 21
786.316839
 31
0.0
  0
LINE
  5
358
100
AcDbEntity
  8
2
  6
CONTINUOUS
 62
     7
100
AcDbLine
 10
1536.316511
 20
786.316839
 30
0.0
 11
1918.316511
 21
786.316839
 31
0.0
  0
LINE
  5
359
100
AcDbEntity
  8
2
  6
CONTINUOUS
 62
     7
100
AcDbLine
 10
1566.202911
 20
1086.317639
 30
0.0
 11
1566.202911
 21
936.317639
 31
0.0
  0
LINE
  5
35A
100
AcDbEntity
  8
2
  6
CONTINUOUS
 62
     7
100
AcDbLine
 10
1598.202911
 20
1086.317639
 30
0.0
 11
1598.202911
 21
936.317639
 31
0.0
  0
LINE
  5
35B
100
AcDbEntity
  8
2
  6
CONTINUOUS
 62
     7
100
AcDbLine
 10
1566.202911
 20
936.317639
 30
0.0
 11
1598.202911
 21
936.317639
 31
0.0
  0
LINE
  5
35C
100
AcDbEntity
  8
2
  6
CONTINUOUS
 62
     7
100
AcDbLine
 10
1566.202911
 20
1083.317639
 30
0.0
 11
1598.202911
 21
1083.317639
 31
0.0
  0
LINE
  5
35D
100
AcDbEntity
  8
2
  6
CONTINUOUS
 62
     7
100
AcDbLine
 10
1568.202911
 20
1081.316839
 30
0.0
 11
1568.202911
 21
980.135239
 31
0.0
  0
LINE
  5
35E
100
AcDbEntity
  8
2
  6
CONTINUOUS
 62
     7
100
AcDbLine
 10
1568.202911
 20
980.135239
 30
0.0
 11
1577.202911
 21
988.317639
 31
0.0
  0
LINE
  5
35F
100
AcDbEntity
  8
2
  6
CONTINUOUS
 62
     7
100
AcDbLine
 10
1568.202911
 20
996.499239
 30
0.0
 11
1577.202911
 21
988.317639
 31
0.0
  0
LINE
  5
360
100
AcDbEntity
  8
2
  6
CONTINUOUS
 62
     7
100
AcDbLine
 10
1566.202911
 20
980.135239
 30
0.0
 11
1568.202911
 21
980.135239
 31
0.0
  0
LINE
  5
361
100
AcDbEntity
  8
2
  6
CONTINUOUS
 62
     7
100
AcDbLine
 10
1568.202911
 20
1081.316839
 30
0.0
 11
1594.452511
 21
1081.316839
 31
0.0
  0
LINE
  5
362
100
AcDbEntity
  8
2
  6
CONTINUOUS
 62
     7
100
AcDbLine
 10
1568.202911
 20
1081.317639
 30
0.0
 11
1566.202911
 21
1083.316839
 31
0.0
  0
LINE
  5
363
100
AcDbEntity
  8
2
  6
CONTINUOUS
 62
     7
100
AcDbLine
 10
1584.202911
 20
1070.317639
 30
0.0
 11
1589.202911
 21
1070.317639
 31
0.0
  0
LINE
  5
364
100
AcDbEntity
  8
2
  6
CONTINUOUS
 62
     7
100
AcDbLine
 10
1594.452511
 20
1083.317639
 30
0.0
 11
1594.452511
 21
1081.316839
 31
0.0
  0
LINE
  5
365
100
AcDbEntity
  8
2
  6
CONTINUOUS
 62
     7
100
AcDbLine
 10
1578.952511
 20
1083.317639
 30
0.0
 11
1578.952511
 21
1081.316839
 31
0.0
  0
LINE
  5
366
100
AcDbEntity
  8
2
  6
CONTINUOUS
 62
     7
100
AcDbLine
 10
1583.702911
 20
1076.317639
 30
0.0
 11
1583.702911
 21
1070.816839
 31
0.0
  0
LINE
  5
367
100
AcDbEntity
  8
2
  6
CONTINUOUS
 62
     7
100
AcDbLine
 10
1589.702911
 20
1076.317639
 30
0.0
 11
1589.702911
 21
1070.816839
 31
0.0
  0
LINE
  5
368
100
AcDbEntity
  8
2
  6
CONTINUOUS
 62
     7
100
AcDbLine
 10
1581.702911
 20
1081.316839
 30
0.0
 11
1581.702911
 21
1076.817639
 31
0.0
  0
LINE
  5
369
100
AcDbEntity
  8
2
  6
CONTINUOUS
 62
     7
100
AcDbLine
 10
1582.202911
 20
1076.317639
 30
0.0
 11
1586.702911
 21
1076.317639
 31
0.0
  0
LINE
  5
36A
100
AcDbEntity
  8
2
  6
CONTINUOUS
 62
     7
100
AcDbLine
 10
1584.202911
 20
1081.316839
 30
0.0
 11
1584.202911
 21
1076.817639
 31
0.0
  0
LINE
  5
36B
100
AcDbEntity
  8
2
  6
CONTINUOUS
 62
     7
100
AcDbLine
 10
1581.702911
 20
1076.816839
 30
0.0
 11
1582.202911
 21
1076.317639
 31
0.0
  0
LINE
  5
36C
100
AcDbEntity
  8
2
  6
CONTINUOUS
 62
     7
100
AcDbLine
 10
1591.702911
 20
1081.316839
 30
0.0
 11
1591.702911
 21
1076.817639
 31
0.0
  0
LINE
  5
36D
100
AcDbEntity
  8
2
  6
CONTINUOUS
 62
     7
100
AcDbLine
 10
1591.702911
 20
1076.817639
 30
0.0
 11
1591.202911
 21
1076.317639
 31
0.0
  0
LINE
  5
36E
100
AcDbEntity
  8
2
  6
CONTINUOUS
 62
     7
100
AcDbLine
 10
1591.202911
 20
1076.317639
 30
0.0
 11
1586.702911
 21
1076.317639
 31
0.0
  0
LINE
  5
36F
100
AcDbEntity
  8
2
  6
CONTINUOUS
 62
     7
100
AcDbLine
 10
1589.202911
 20
1081.316839
 30
0.0
 11
1589.202911
 21
1076.817639
 31
0.0
  0
LINE
  5
370
100
AcDbEntity
  8
2
  6
CONTINUOUS
 62
     7
100
AcDbLine
 10
1583.702911
 20
1070.816839
 30
0.0
 11
1584.202911
 21
1070.317639
 31
0.0
  0
LINE
  5
371
100
AcDbEntity
  8
2
  6
CONTINUOUS
 62
     7
100
AcDbLine
 10
1589.202911
 20
1070.317639
 30
0.0
 11
1589.702911
 21
1070.817639
 31
0.0
  0
LINE
  5
372
100
AcDbEntity
  8
2
  6
CENTER
 62
     7
100
AcDbLine
 10
1586.702911
 20
1114.816839
 30
0.0
 11
1586.702911
 21
1059.596839
 31
0.0
  0
LINE
  5
373
100
AcDbEntity
  8
2
  6
CONTINUOUS
 62
     7
100
AcDbLine
 10
2806.816511
 20
786.317639
 30
0.0
 11
2806.816511
 21
636.317639
 31
0.0
  0
LINE
  5
374
100
AcDbEntity
  8
2
  6
CONTINUOUS
 62
     7
100
AcDbLine
 10
2838.816511
 20
786.317639
 30
0.0
 11
2838.816511
 21
636.317639
 31
0.0
  0
LINE
  5
375
100
AcDbEntity
  8
2
  6
CONTINUOUS
 62
     7
100
AcDbLine
 10
2806.816511
 20
636.317639
 30
0.0
 11
2838.816511
 21
636.317639
 31
0.0
  0
LINE
  5
376
100
AcDbEntity
  8
2
  6
CONTINUOUS
 62
     7
100
AcDbLine
 10
2806.816511
 20
783.316839
 30
0.0
 11
2838.816511
 21
783.316839
 31
0.0
  0
LINE
  5
377
100
AcDbEntity
  8
2
  6
CONTINUOUS
 62
     7
100
AcDbLine
 10
2808.816511
 20
781.316839
 30
0.0
 11
2808.816511
 21
680.135239
 31
0.0
  0
LINE
  5
378
100
AcDbEntity
  8
2
  6
CONTINUOUS
 62
     7
100
AcDbLine
 10
2808.816511
 20
680.135239
 30
0.0
 11
2817.816511
 21
688.316839
 31
0.0
  0
LINE
  5
379
100
AcDbEntity
  8
2
  6
CONTINUOUS
 62
     7
100
AcDbLine
 10
2808.816511
 20
696.499239
 30
0.0
 11
2817.816511
 21
688.317639
 31
0.0
  0
LINE
  5
37A
100
AcDbEntity
  8
2
  6
CONTINUOUS
 62
     7
100
AcDbLine
 10
2806.816511
 20
680.135239
 30
0.0
 11
2808.816511
 21
680.135239
 31
0.0
  0
LINE
  5
37B
100
AcDbEntity
  8
2
  6
CONTINUOUS
 62
     7
100
AcDbLine
 10
2808.816511
 20
781.316839
 30
0.0
 11
2835.066911
 21
781.316839
 31
0.0
  0
LINE
  5
37C
100
AcDbEntity
  8
2
  6
CONTINUOUS
 62
     7
100
AcDbLine
 10
2808.816511
 20
781.317639
 30
0.0
 11
2806.816511
 21
783.316839
 31
0.0
  0
LINE
  5
37D
100
AcDbEntity
  8
2
  6
CONTINUOUS
 62
     7
100
AcDbLine
 10
2824.816511
 20
770.317639
 30
0.0
 11
2829.816511
 21
770.317639
 31
0.0
  0
LINE
  5
37E
100
AcDbEntity
  8
2
  6
CONTINUOUS
 62
     7
100
AcDbLine
 10
2835.066911
 20
783.316839
 30
0.0
 11
2835.066911
 21
781.316839
 31
0.0
  0
LINE
  5
37F
100
AcDbEntity
  8
2
  6
CONTINUOUS
 62
     7
100
AcDbLine
 10
2819.566911
 20
783.316839
 30
0.0
 11
2819.566911
 21
781.316839
 31
0.0
  0
LINE
  5
380
100
AcDbEntity
  8
2
  6
CONTINUOUS
 62
     7
100
AcDbLine
 10
2824.316511
 20
776.317639
 30
0.0
 11
2824.316511
 21
770.816839
 31
0.0
  0
LINE
  5
381
100
AcDbEntity
  8
2
  6
CONTINUOUS
 62
     7
100
AcDbLine
 10
2830.316511
 20
776.317639
 30
0.0
 11
2830.316511
 21
770.816839
 31
0.0
  0
LINE
  5
382
100
AcDbEntity
  8
2
  6
CONTINUOUS
 62
     7
100
AcDbLine
 10
2822.316511
 20
781.316839
 30
0.0
 11
2822.316511
 21
776.816839
 31
0.0
  0
LINE
  5
383
100
AcDbEntity
  8
2
  6
CONTINUOUS
 62
     7
100
AcDbLine
 10
2822.816511
 20
776.317639
 30
0.0
 11
2827.316511
 21
776.317639
 31
0.0
  0
LINE
  5
384
100
AcDbEntity
  8
2
  6
CONTINUOUS
 62
     7
100
AcDbLine
 10
2824.816511
 20
781.316839
 30
0.0
 11
2824.816511
 21
776.816839
 31
0.0
  0
LINE
  5
385
100
AcDbEntity
  8
2
  6
CONTINUOUS
 62
     7
100
AcDbLine
 10
2822.316511
 20
776.816839
 30
0.0
 11
2822.816511
 21
776.317639
 31
0.0
  0
LINE
  5
386
100
AcDbEntity
  8
2
  6
CONTINUOUS
 62
     7
100
AcDbLine
 10
2832.316511
 20
781.316839
 30
0.0
 11
2832.316511
 21
776.816839
 31
0.0
  0
LINE
  5
387
100
AcDbEntity
  8
2
  6
CONTINUOUS
 62
     7
100
AcDbLine
 10
2832.316511
 20
776.817639
 30
0.0
 11
2831.816511
 21
776.317639
 31
0.0
  0
LINE
  5
388
100
AcDbEntity
  8
2
  6
CONTINUOUS
 62
     7
100
AcDbLine
 10
2831.816511
 20
776.317639
 30
0.0
 11
2827.316511
 21
776.317639
 31
0.0
  0
LINE
  5
389
100
AcDbEntity
  8
2
  6
CONTINUOUS
 62
     7
100
AcDbLine
 10
2829.816511
 20
781.316839
 30
0.0
 11
2829.816511
 21
776.816839
 31
0.0
  0
LINE
  5
38A
100
AcDbEntity
  8
2
  6
CONTINUOUS
 62
     7
100
AcDbLine
 10
2824.316511
 20
770.817639
 30
0.0
 11
2824.816511
 21
770.317639
 31
0.0
  0
LINE
  5
38B
100
AcDbEntity
  8
2
  6
CONTINUOUS
 62
     7
100
AcDbLine
 10
2829.816511
 20
770.316839
 30
0.0
 11
2830.316511
 21
770.817639
 31
0.0
  0
LINE
  5
38C
100
AcDbEntity
  8
2
  6
CENTER
 62
     7
100
AcDbLine
 10
2827.316511
 20
814.816839
 30
0.0
 11
2827.316511
 21
759.596839
 31
0.0
  0
LINE
  5
38D
100
AcDbEntity
  8
2
  6
CENTER
 62
     7
100
AcDbLine
 10
1727.316511
 20
850.133639
 30
0.0
 11
1727.316511
 21
794.104039
 31
0.0
  0
LINE
  5
38E
100
AcDbEntity
  8
2
  6
CONTINUOUS
 62
     7
100
AcDbLine
 10
234.702911
 20
1052.816839
 30
0.0
 11
234.702911
 21
1051.529639
 31
0.0
  0
LINE
  5
38F
100
AcDbEntity
  8
2
  6
CONTINUOUS
 62
     7
100
AcDbLine
 10
234.702911
 20
950.104839
 30
0.0
 11
234.702911
 21
948.817639
 31
0.0
  0
LINE
  5
390
100
AcDbEntity
  8
2
  6
CONTINUOUS
 62
     7
100
AcDbLine
 10
229.702911
 20
1052.816839
 30
0.0
 11
229.702911
 21
1051.529639
 31
0.0
  0
LINE
  5
391
100
AcDbEntity
  8
2
  6
CONTINUOUS
 62
     7
100
AcDbLine
 10
229.702911
 20
950.104839
 30
0.0
 11
229.702911
 21
948.817639
 31
0.0
  0
LINE
  5
392
100
AcDbEntity
  8
2
  6
CONTINUOUS
 62
     7
100
AcDbLine
 10
232.202911
 20
968.900039
 30
0.0
 11
225.202911
 21
964.858439
 31
0.0
  0
LINE
  5
393
100
AcDbEntity
  8
2
  6
CENTER
 62
     7
100
AcDbLine
 10
215.940511
 20
960.817639
 30
0.0
 11
245.709311
 21
960.817639
 31
0.0
  0
LINE
  5
394
100
AcDbEntity
  8
2
  6
CENTER
 62
     7
100
AcDbLine
 10
232.202911
 20
974.829639
 30
0.0
 11
232.202911
 21
946.052839
 31
0.0
  0
LINE
  5
395
100
AcDbEntity
  8
2
  6
CONTINUOUS
 62
     7
100
AcDbLine
 10
225.202911
 20
964.858439
 30
0.0
 11
225.202911
 21
956.776039
 31
0.0
  0
LINE
  5
396
100
AcDbEntity
  8
2
  6
CENTER
 62
     7
100
AcDbLine
 10
215.940511
 20
1040.817639
 30
0.0
 11
245.709311
 21
1040.817639
 31
0.0
  0
LINE
  5
397
100
AcDbEntity
  8
2
  6
CENTER
 62
     7
100
AcDbLine
 10
232.202911
 20
1054.829639
 30
0.0
 11
232.202911
 21
1026.052839
 31
0.0
  0
LINE
  5
398
100
AcDbEntity
  8
2
  6
CONTINUOUS
 62
     7
100
AcDbLine
 10
225.202911
 20
1044.858439
 30
0.0
 11
225.202911
 21
1036.776039
 31
0.0
  0
LINE
  5
399
100
AcDbEntity
  8
2
  6
CONTINUOUS
 62
     7
100
AcDbLine
 10
239.202911
 20
1036.776039
 30
0.0
 11
232.202911
 21
1032.734439
 31
0.0
  0
LINE
  5
39A
100
AcDbEntity
  8
2
  6
CONTINUOUS
 62
     7
100
AcDbLine
 10
232.202911
 20
1032.734439
 30
0.0
 11
225.202911
 21
1036.776039
 31
0.0
  0
LINE
  5
39B
100
AcDbEntity
  8
2
  6
CONTINUOUS
 62
     7
100
AcDbLine
 10
232.202911
 20
952.734439
 30
0.0
 11
225.202911
 21
956.776039
 31
0.0
  0
LINE
  5
39C
100
AcDbEntity
  8
2
  6
CONTINUOUS
 62
     7
100
AcDbLine
 10
232.202911
 20
1048.900039
 30
0.0
 11
225.202911
 21
1044.858439
 31
0.0
  0
LINE
  5
39D
100
AcDbEntity
  8
2
  6
CONTINUOUS
 62
     7
100
AcDbLine
 10
239.202911
 20
1044.858439
 30
0.0
 11
239.202911
 21
1036.776039
 31
0.0
  0
LINE
  5
39E
100
AcDbEntity
  8
2
  6
CONTINUOUS
 62
     7
100
AcDbLine
 10
232.202911
 20
1048.900039
 30
0.0
 11
239.202911
 21
1044.858439
 31
0.0
  0
LINE
  5
39F
100
AcDbEntity
  8
2
  6
CONTINUOUS
 62
     7
100
AcDbLine
 10
239.202911
 20
956.776039
 30
0.0
 11
232.202911
 21
952.734439
 31
0.0
  0
LINE
  5
3A0
100
AcDbEntity
  8
2
  6
CONTINUOUS
 62
     7
100
AcDbLine
 10
232.202911
 20
968.900039
 30
0.0
 11
239.202911
 21
964.858439
 31
0.0
  0
LINE
  5
3A1
100
AcDbEntity
  8
2
  6
CONTINUOUS
 62
     7
100
AcDbLine
 10
239.202911
 20
964.858439
 30
0.0
 11
239.202911
 21
956.776039
 31
0.0
  0
LINE
  5
3A2
100
AcDbEntity
  8
2
  6
CONTINUOUS
 62
     7
100
AcDbLine
 10
327.702911
 20
1086.317639
 30
0.0
 11
161.702911
 21
1086.317639
 31
0.0
  0
LINE
  5
3A3
100
AcDbEntity
  8
2
  6
CONTINUOUS
 62
     7
100
AcDbLine
 10
934.702911
 20
1052.816839
 30
0.0
 11
934.702911
 21
1051.529639
 31
0.0
  0
LINE
  5
3A4
100
AcDbEntity
  8
2
  6
CONTINUOUS
 62
     7
100
AcDbLine
 10
934.702911
 20
950.104839
 30
0.0
 11
934.702911
 21
948.817639
 31
0.0
  0
LINE
  5
3A5
100
AcDbEntity
  8
2
  6
CONTINUOUS
 62
     7
100
AcDbLine
 10
929.702911
 20
1052.816839
 30
0.0
 11
929.702911
 21
1051.529639
 31
0.0
  0
LINE
  5
3A6
100
AcDbEntity
  8
2
  6
CONTINUOUS
 62
     7
100
AcDbLine
 10
929.702911
 20
950.104839
 30
0.0
 11
929.702911
 21
948.817639
 31
0.0
  0
LINE
  5
3A7
100
AcDbEntity
  8
2
  6
CONTINUOUS
 62
     7
100
AcDbLine
 10
932.202911
 20
968.900039
 30
0.0
 11
925.202911
 21
964.858439
 31
0.0
  0
LINE
  5
3A8
100
AcDbEntity
  8
2
  6
CENTER
 62
     7
100
AcDbLine
 10
915.940511
 20
960.817639
 30
0.0
 11
945.709311
 21
960.817639
 31
0.0
  0
LINE
  5
3A9
100
AcDbEntity
  8
2
  6
CENTER
 62
     7
100
AcDbLine
 10
932.202911
 20
974.829639
 30
0.0
 11
932.202911
 21
946.052839
 31
0.0
  0
LINE
  5
3AA
100
AcDbEntity
  8
2
  6
CONTINUOUS
 62
     7
100
AcDbLine
 10
925.202911
 20
964.858439
 30
0.0
 11
925.202911
 21
956.776039
 31
0.0
  0
LINE
  5
3AB
100
AcDbEntity
  8
2
  6
CENTER
 62
     7
100
AcDbLine
 10
915.940511
 20
1040.817639
 30
0.0
 11
945.709311
 21
1040.817639
 31
0.0
  0
LINE
  5
3AC
100
AcDbEntity
  8
2
  6
CENTER
 62
     7
100
AcDbLine
 10
932.202911
 20
1054.829639
 30
0.0
 11
932.202911
 21
1026.052839
 31
0.0
  0
LINE
  5
3AD
100
AcDbEntity
  8
2
  6
CONTINUOUS
 62
     7
100
AcDbLine
 10
925.202911
 20
1044.858439
 30
0.0
 11
925.202911
 21
1036.776039
 31
0.0
  0
LINE
  5
3AE
100
AcDbEntity
  8
2
  6
CONTINUOUS
 62
     7
100
AcDbLine
 10
939.202911
 20
1036.776039
 30
0.0
 11
932.202911
 21
1032.734439
 31
0.0
  0
LINE
  5
3AF
100
AcDbEntity
  8
2
  6
CONTINUOUS
 62
     7
100
AcDbLine
 10
932.202911
 20
1032.734439
 30
0.0
 11
925.202911
 21
1036.776039
 31
0.0
  0
LINE
  5
3B0
100
AcDbEntity
  8
2
  6
CONTINUOUS
 62
     7
100
AcDbLine
 10
932.202911
 20
952.734439
 30
0.0
 11
925.202911
 21
956.776039
 31
0.0
  0
LINE
  5
3B1
100
AcDbEntity
  8
2
  6
CONTINUOUS
 62
     7
100
AcDbLine
 10
932.202911
 20
1048.900039
 30
0.0
 11
925.202911
 21
1044.858439
 31
0.0
  0
LINE
  5
3B2
100
AcDbEntity
  8
2
  6
CONTINUOUS
 62
     7
100
AcDbLine
 10
939.202911
 20
1044.858439
 30
0.0
 11
939.202911
 21
1036.776039
 31
0.0
  0
LINE
  5
3B3
100
AcDbEntity
  8
2
  6
CONTINUOUS
 62
     7
100
AcDbLine
 10
932.202911
 20
1048.900039
 30
0.0
 11
939.202911
 21
1044.858439
 31
0.0
  0
LINE
  5
3B4
100
AcDbEntity
  8
2
  6
CONTINUOUS
 62
     7
100
AcDbLine
 10
939.202911
 20
956.776039
 30
0.0
 11
932.202911
 21
952.734439
 31
0.0
  0
LINE
  5
3B5
100
AcDbEntity
  8
2
  6
CONTINUOUS
 62
     7
100
AcDbLine
 10
932.202911
 20
968.900039
 30
0.0
 11
939.202911
 21
964.858439
 31
0.0
  0
LINE
  5
3B6
100
AcDbEntity
  8
2
  6
CONTINUOUS
 62
     7
100
AcDbLine
 10
939.202911
 20
964.858439
 30
0.0
 11
939.202911
 21
956.776039
 31
0.0
  0
LINE
  5
3B7
100
AcDbEntity
  8
2
  6
CONTINUOUS
 62
     7
100
AcDbLine
 10
1584.702911
 20
1052.816839
 30
0.0
 11
1584.702911
 21
1051.529639
 31
0.0
  0
LINE
  5
3B8
100
AcDbEntity
  8
2
  6
CONTINUOUS
 62
     7
100
AcDbLine
 10
1584.702911
 20
950.104839
 30
0.0
 11
1584.702911
 21
948.817639
 31
0.0
  0
LINE
  5
3B9
100
AcDbEntity
  8
2
  6
CONTINUOUS
 62
     7
100
AcDbLine
 10
1579.702911
 20
1052.816839
 30
0.0
 11
1579.702911
 21
1051.529639
 31
0.0
  0
LINE
  5
3BA
100
AcDbEntity
  8
2
  6
CONTINUOUS
 62
     7
100
AcDbLine
 10
1579.702911
 20
950.104839
 30
0.0
 11
1579.702911
 21
948.817639
 31
0.0
  0
LINE
  5
3BB
100
AcDbEntity
  8
2
  6
CONTINUOUS
 62
     7
100
AcDbLine
 10
1582.202911
 20
968.900039
 30
0.0
 11
1575.202911
 21
964.858439
 31
0.0
  0
LINE
  5
3BC
100
AcDbEntity
  8
2
  6
CENTER
 62
     7
100
AcDbLine
 10
1565.940511
 20
960.817639
 30
0.0
 11
1595.709311
 21
960.817639
 31
0.0
  0
LINE
  5
3BD
100
AcDbEntity
  8
2
  6
CENTER
 62
     7
100
AcDbLine
 10
1582.202911
 20
974.829639
 30
0.0
 11
1582.202911
 21
946.052839
 31
0.0
  0
LINE
  5
3BE
100
AcDbEntity
  8
2
  6
CONTINUOUS
 62
     7
100
AcDbLine
 10
1575.202911
 20
964.858439
 30
0.0
 11
1575.202911
 21
956.776039
 31
0.0
  0
LINE
  5
3BF
100
AcDbEntity
  8
2
  6
CENTER
 62
     7
100
AcDbLine
 10
1565.940511
 20
1040.817639
 30
0.0
 11
1595.709311
 21
1040.817639
 31
0.0
  0
LINE
  5
3C0
100
AcDbEntity
  8
2
  6
CENTER
 62
     7
100
AcDbLine
 10
1582.202911
 20
1054.829639
 30
0.0
 11
1582.202911
 21
1026.052839
 31
0.0
  0
LINE
  5
3C1
100
AcDbEntity
  8
2
  6
CONTINUOUS
 62
     7
100
AcDbLine
 10
1575.202911
 20
1044.858439
 30
0.0
 11
1575.202911
 21
1036.776039
 31
0.0
  0
LINE
  5
3C2
100
AcDbEntity
  8
2
  6
CONTINUOUS
 62
     7
100
AcDbLine
 10
1589.202911
 20
1036.776039
 30
0.0
 11
1582.202911
 21
1032.734439
 31
0.0
  0
LINE
  5
3C3
100
AcDbEntity
  8
2
  6
CONTINUOUS
 62
     7
100
AcDbLine
 10
1582.202911
 20
1032.734439
 30
0.0
 11
1575.202911
 21
1036.776039
 31
0.0
  0
LINE
  5
3C4
100
AcDbEntity
  8
2
  6
CONTINUOUS
 62
     7
100
AcDbLine
 10
1582.202911
 20
952.734439
 30
0.0
 11
1575.202911
 21
956.776039
 31
0.0
  0
LINE
  5
3C5
100
AcDbEntity
  8
2
  6
CONTINUOUS
 62
     7
100
AcDbLine
 10
1582.202911
 20
1048.900039
 30
0.0
 11
1575.202911
 21
1044.858439
 31
0.0
  0
LINE
  5
3C6
100
AcDbEntity
  8
2
  6
CONTINUOUS
 62
     7
100
AcDbLine
 10
1589.202911
 20
1044.858439
 30
0.0
 11
1589.202911
 21
1036.776039
 31
0.0
  0
LINE
  5
3C7
100
AcDbEntity
  8
2
  6
CONTINUOUS
 62
     7
100
AcDbLine
 10
1582.202911
 20
1048.900039
 30
0.0
 11
1589.202911
 21
1044.858439
 31
0.0
  0
LINE
  5
3C8
100
AcDbEntity
  8
2
  6
CONTINUOUS
 62
     7
100
AcDbLine
 10
1589.202911
 20
956.776039
 30
0.0
 11
1582.202911
 21
952.734439
 31
0.0
  0
LINE
  5
3C9
100
AcDbEntity
  8
2
  6
CONTINUOUS
 62
     7
100
AcDbLine
 10
1582.202911
 20
968.900039
 30
0.0
 11
1589.202911
 21
964.858439
 31
0.0
  0
LINE
  5
3CA
100
AcDbEntity
  8
2
  6
CONTINUOUS
 62
     7
100
AcDbLine
 10
1589.202911
 20
964.858439
 30
0.0
 11
1589.202911
 21
956.776039
 31
0.0
  0
LINE
  5
3CB
100
AcDbEntity
  8
2
  6
CONTINUOUS
 62
     7
100
AcDbLine
 10
1475.316511
 20
752.816839
 30
0.0
 11
1475.316511
 21
751.529639
 31
0.0
  0
LINE
  5
3CC
100
AcDbEntity
  8
2
  6
CONTINUOUS
 62
     7
100
AcDbLine
 10
1475.316511
 20
650.104839
 30
0.0
 11
1475.316511
 21
648.817639
 31
0.0
  0
LINE
  5
3CD
100
AcDbEntity
  8
2
  6
CONTINUOUS
 62
     7
100
AcDbLine
 10
1470.316511
 20
752.816839
 30
0.0
 11
1470.316511
 21
751.529639
 31
0.0
  0
LINE
  5
3CE
100
AcDbEntity
  8
2
  6
CONTINUOUS
 62
     7
100
AcDbLine
 10
1470.316511
 20
650.104839
 30
0.0
 11
1470.316511
 21
648.817639
 31
0.0
  0
LINE
  5
3CF
100
AcDbEntity
  8
2
  6
CONTINUOUS
 62
     7
100
AcDbLine
 10
1472.816511
 20
668.900039
 30
0.0
 11
1465.816511
 21
664.858439
 31
0.0
  0
LINE
  5
3D0
100
AcDbEntity
  8
2
  6
CENTER
 62
     7
100
AcDbLine
 10
1456.554111
 20
660.817639
 30
0.0
 11
1486.322911
 21
660.817639
 31
0.0
  0
LINE
  5
3D1
100
AcDbEntity
  8
2
  6
CENTER
 62
     7
100
AcDbLine
 10
1472.816511
 20
674.829639
 30
0.0
 11
1472.816511
 21
646.052839
 31
0.0
  0
LINE
  5
3D2
100
AcDbEntity
  8
2
  6
CONTINUOUS
 62
     7
100
AcDbLine
 10
1465.816511
 20
664.858439
 30
0.0
 11
1465.816511
 21
656.776039
 31
0.0
  0
LINE
  5
3D3
100
AcDbEntity
  8
2
  6
CENTER
 62
     7
100
AcDbLine
 10
1456.554111
 20
740.817639
 30
0.0
 11
1486.322911
 21
740.817639
 31
0.0
  0
LINE
  5
3D4
100
AcDbEntity
  8
2
  6
CENTER
 62
     7
100
AcDbLine
 10
1472.816511
 20
754.829639
 30
0.0
 11
1472.816511
 21
726.052839
 31
0.0
  0
LINE
  5
3D5
100
AcDbEntity
  8
2
  6
CONTINUOUS
 62
     7
100
AcDbLine
 10
1465.816511
 20
744.858439
 30
0.0
 11
1465.816511
 21
736.776039
 31
0.0
  0
LINE
  5
3D6
100
AcDbEntity
  8
2
  6
CONTINUOUS
 62
     7
100
AcDbLine
 10
1479.816511
 20
736.776039
 30
0.0
 11
1472.816511
 21
732.734439
 31
0.0
  0
LINE
  5
3D7
100
AcDbEntity
  8
2
  6
CONTINUOUS
 62
     7
100
AcDbLine
 10
1472.816511
 20
732.734439
 30
0.0
 11
1465.816511
 21
736.776039
 31
0.0
  0
LINE
  5
3D8
100
AcDbEntity
  8
2
  6
CONTINUOUS
 62
     7
100
AcDbLine
 10
1472.816511
 20
652.734439
 30
0.0
 11
1465.816511
 21
656.776039
 31
0.0
  0
LINE
  5
3D9
100
AcDbEntity
  8
2
  6
CONTINUOUS
 62
     7
100
AcDbLine
 10
1472.816511
 20
748.900039
 30
0.0
 11
1465.816511
 21
744.858439
 31
0.0
  0
LINE
  5
3DA
100
AcDbEntity
  8
2
  6
CONTINUOUS
 62
     7
100
AcDbLine
 10
1479.816511
 20
744.858439
 30
0.0
 11
1479.816511
 21
736.776039
 31
0.0
  0
LINE
  5
3DB
100
AcDbEntity
  8
2
  6
CONTINUOUS
 62
     7
100
AcDbLine
 10
1472.816511
 20
748.900039
 30
0.0
 11
1479.816511
 21
744.858439
 31
0.0
  0
LINE
  5
3DC
100
AcDbEntity
  8
2
  6
CONTINUOUS
 62
     7
100
AcDbLine
 10
1479.816511
 20
656.776039
 30
0.0
 11
1472.816511
 21
652.734439
 31
0.0
  0
LINE
  5
3DD
100
AcDbEntity
  8
2
  6
CONTINUOUS
 62
     7
100
AcDbLine
 10
1472.816511
 20
668.900039
 30
0.0
 11
1479.816511
 21
664.858439
 31
0.0
  0
LINE
  5
3DE
100
AcDbEntity
  8
2
  6
CONTINUOUS
 62
     7
100
AcDbLine
 10
1479.816511
 20
664.858439
 30
0.0
 11
1479.816511
 21
656.776039
 31
0.0
  0
LINE
  5
3DF
100
AcDbEntity
  8
2
  6
CONTINUOUS
 62
     7
100
AcDbLine
 10
2125.316511
 20
752.816839
 30
0.0
 11
2125.316511
 21
751.529639
 31
0.0
  0
LINE
  5
3E0
100
AcDbEntity
  8
2
  6
CONTINUOUS
 62
     7
100
AcDbLine
 10
2125.316511
 20
650.104839
 30
0.0
 11
2125.316511
 21
648.817639
 31
0.0
  0
LINE
  5
3E1
100
AcDbEntity
  8
2
  6
CONTINUOUS
 62
     7
100
AcDbLine
 10
2120.316511
 20
752.816839
 30
0.0
 11
2120.316511
 21
751.529639
 31
0.0
  0
LINE
  5
3E2
100
AcDbEntity
  8
2
  6
CONTINUOUS
 62
     7
100
AcDbLine
 10
2120.316511
 20
650.104839
 30
0.0
 11
2120.316511
 21
648.817639
 31
0.0
  0
LINE
  5
3E3
100
AcDbEntity
  8
2
  6
CONTINUOUS
 62
     7
100
AcDbLine
 10
2122.816511
 20
668.900039
 30
0.0
 11
2115.816511
 21
664.858439
 31
0.0
  0
LINE
  5
3E4
100
AcDbEntity
  8
2
  6
CENTER
 62
     7
100
AcDbLine
 10
2106.554111
 20
660.817639
 30
0.0
 11
2136.322911
 21
660.817639
 31
0.0
  0
LINE
  5
3E5
100
AcDbEntity
  8
2
  6
CENTER
 62
     7
100
AcDbLine
 10
2122.816511
 20
674.829639
 30
0.0
 11
2122.816511
 21
646.052839
 31
0.0
  0
LINE
  5
3E6
100
AcDbEntity
  8
2
  6
CONTINUOUS
 62
     7
100
AcDbLine
 10
2115.816511
 20
664.858439
 30
0.0
 11
2115.816511
 21
656.776039
 31
0.0
  0
LINE
  5
3E7
100
AcDbEntity
  8
2
  6
CENTER
 62
     7
100
AcDbLine
 10
2106.554111
 20
740.817639
 30
0.0
 11
2136.322911
 21
740.817639
 31
0.0
  0
LINE
  5
3E8
100
AcDbEntity
  8
2
  6
CENTER
 62
     7
100
AcDbLine
 10
2122.816511
 20
754.829639
 30
0.0
 11
2122.816511
 21
726.052839
 31
0.0
  0
LINE
  5
3E9
100
AcDbEntity
  8
2
  6
CONTINUOUS
 62
     7
100
AcDbLine
 10
2115.816511
 20
744.858439
 30
0.0
 11
2115.816511
 21
736.776039
 31
0.0
  0
LINE
  5
3EA
100
AcDbEntity
  8
2
  6
CONTINUOUS
 62
     7
100
AcDbLine
 10
2129.816511
 20
736.776039
 30
0.0
 11
2122.816511
 21
732.734439
 31
0.0
  0
LINE
  5
3EB
100
AcDbEntity
  8
2
  6
CONTINUOUS
 62
     7
100
AcDbLine
 10
2122.816511
 20
732.734439
 30
0.0
 11
2115.816511
 21
736.776039
 31
0.0
  0
LINE
  5
3EC
100
AcDbEntity
  8
2
  6
CONTINUOUS
 62
     7
100
AcDbLine
 10
2122.816511
 20
652.734439
 30
0.0
 11
2115.816511
 21
656.776039
 31
0.0
  0
LINE
  5
3ED
100
AcDbEntity
  8
2
  6
CONTINUOUS
 62
     7
100
AcDbLine
 10
2122.816511
 20
748.900039
 30
0.0
 11
2115.816511
 21
744.858439
 31
0.0
  0
LINE
  5
3EE
100
AcDbEntity
  8
2
  6
CONTINUOUS
 62
     7
100
AcDbLine
 10
2129.816511
 20
744.858439
 30
0.0
 11
2129.816511
 21
736.776039
 31
0.0
  0
LINE
  5
3EF
100
AcDbEntity
  8
2
  6
CONTINUOUS
 62
     7
100
AcDbLine
 10
2122.816511
 20
748.900039
 30
0.0
 11
2129.816511
 21
744.858439
 31
0.0
  0
LINE
  5
3F0
100
AcDbEntity
  8
2
  6
CONTINUOUS
 62
     7
100
AcDbLine
 10
2129.816511
 20
656.776039
 30
0.0
 11
2122.816511
 21
652.734439
 31
0.0
  0
LINE
  5
3F1
100
AcDbEntity
  8
2
  6
CONTINUOUS
 62
     7
100
AcDbLine
 10
2122.816511
 20
668.900039
 30
0.0
 11
2129.816511
 21
664.858439
 31
0.0
  0
LINE
  5
3F2
100
AcDbEntity
  8
2
  6
CONTINUOUS
 62
     7
100
AcDbLine
 10
2129.816511
 20
664.858439
 30
0.0
 11
2129.816511
 21
656.776039
 31
0.0
  0
LINE
  5
3F3
100
AcDbEntity
  8
2
  6
CONTINUOUS
 62
     7
100
AcDbLine
 10
2825.316511
 20
752.816839
 30
0.0
 11
2825.316511
 21
751.529639
 31
0.0
  0
LINE
  5
3F4
100
AcDbEntity
  8
2
  6
CONTINUOUS
 62
     7
100
AcDbLine
 10
2825.316511
 20
650.104839
 30
0.0
 11
2825.316511
 21
648.817639
 31
0.0
  0
LINE
  5
3F5
100
AcDbEntity
  8
2
  6
CONTINUOUS
 62
     7
100
AcDbLine
 10
2820.316511
 20
752.816839
 30
0.0
 11
2820.316511
 21
751.529639
 31
0.0
  0
LINE
  5
3F6
100
AcDbEntity
  8
2
  6
CONTINUOUS
 62
     7
100
AcDbLine
 10
2820.316511
 20
650.104839
 30
0.0
 11
2820.316511
 21
648.817639
 31
0.0
  0
LINE
  5
3F7
100
AcDbEntity
  8
2
  6
CONTINUOUS
 62
     7
100
AcDbLine
 10
2822.816511
 20
668.900039
 30
0.0
 11
2815.816511
 21
664.858439
 31
0.0
  0
LINE
  5
3F8
100
AcDbEntity
  8
2
  6
CENTER
 62
     7
100
AcDbLine
 10
2806.554111
 20
660.817639
 30
0.0
 11
2836.322911
 21
660.817639
 31
0.0
  0
LINE
  5
3F9
100
AcDbEntity
  8
2
  6
CENTER
 62
     7
100
AcDbLine
 10
2822.816511
 20
674.829639
 30
0.0
 11
2822.816511
 21
646.052839
 31
0.0
  0
LINE
  5
3FA
100
AcDbEntity
  8
2
  6
CONTINUOUS
 62
     7
100
AcDbLine
 10
2815.816511
 20
664.858439
 30
0.0
 11
2815.816511
 21
656.776039
 31
0.0
  0
LINE
  5
3FB
100
AcDbEntity
  8
2
  6
CENTER
 62
     7
100
AcDbLine
 10
2806.554111
 20
740.817639
 30
0.0
 11
2836.322911
 21
740.817639
 31
0.0
  0
LINE
  5
3FC
100
AcDbEntity
  8
2
  6
CENTER
 62
     7
100
AcDbLine
 10
2822.816511
 20
754.829639
 30
0.0
 11
2822.816511
 21
726.052839
 31
0.0
  0
LINE
  5
3FD
100
AcDbEntity
  8
2
  6
CONTINUOUS
 62
     7
100
AcDbLine
 10
2815.816511
 20
744.858439
 30
0.0
 11
2815.816511
 21
736.776039
 31
0.0
  0
LINE
  5
3FE
100
AcDbEntity
  8
2
  6
CONTINUOUS
 62
     7
100
AcDbLine
 10
2829.816511
 20
736.776039
 30
0.0
 11
2822.816511
 21
732.734439
 31
0.0
  0
LINE
  5
3FF
100
AcDbEntity
  8
2
  6
CONTINUOUS
 62
     7
100
AcDbLine
 10
2822.816511
 20
732.734439
 30
0.0
 11
2815.816511
 21
736.776039
 31
0.0
  0
LINE
  5
400
100
AcDbEntity
  8
2
  6
CONTINUOUS
 62
     7
100
AcDbLine
 10
2822.816511
 20
652.734439
 30
0.0
 11
2815.816511
 21
656.776039
 31
0.0
  0
LINE
  5
401
100
AcDbEntity
  8
2
  6
CONTINUOUS
 62
     7
100
AcDbLine
 10
2822.816511
 20
748.900039
 30
0.0
 11
2815.816511
 21
744.858439
 31
0.0
  0
LINE
  5
402
100
AcDbEntity
  8
2
  6
CONTINUOUS
 62
     7
100
AcDbLine
 10
2829.816511
 20
744.858439
 30
0.0
 11
2829.816511
 21
736.776039
 31
0.0
  0
LINE
  5
403
100
AcDbEntity
  8
2
  6
CONTINUOUS
 62
     7
100
AcDbLine
 10
2822.816511
 20
748.900039
 30
0.0
 11
2829.816511
 21
744.858439
 31
0.0
  0
LINE
  5
404
100
AcDbEntity
  8
2
  6
CONTINUOUS
 62
     7
100
AcDbLine
 10
2829.816511
 20
656.776039
 30
0.0
 11
2822.816511
 21
652.734439
 31
0.0
  0
LINE
  5
405
100
AcDbEntity
  8
2
  6
CONTINUOUS
 62
     7
100
AcDbLine
 10
2822.816511
 20
668.900039
 30
0.0
 11
2829.816511
 21
664.858439
 31
0.0
  0
LINE
  5
406
100
AcDbEntity
  8
2
  6
CONTINUOUS
 62
     7
100
AcDbLine
 10
2829.816511
 20
664.858439
 30
0.0
 11
2829.816511
 21
656.776039
 31
0.0
  0
LINE
  5
407
100
AcDbEntity
  8
2
  6
CONTINUOUS
 62
     7
100
AcDbLine
 10
1738.202911
 20
1144.667239
 30
0.0
 11
1738.202911
 21
1049.667239
 31
0.0
  0
LINE
  5
408
100
AcDbEntity
  8
2
  6
CONTINUOUS
 62
     7
100
AcDbLine
 10
1736.702911
 20
1144.667239
 30
0.0
 11
1738.202911
 21
1144.667239
 31
0.0
  0
LINE
  5
409
100
AcDbEntity
  8
2
  6
CONTINUOUS
 62
     7
100
AcDbLine
 10
1736.702911
 20
1049.667239
 30
0.0
 11
1738.202911
 21
1049.667239
 31
0.0
  0
ARC
  5
40A
100
AcDbEntity
  8
2
  6
CONTINUOUS
 62
     7
100
AcDbCircle
 10
1330.316511
 20
842.667239
 30
0.0
 40
2.0
100
AcDbArc
 50
90.0
 51
180.0
  0
ARC
  5
40B
100
AcDbEntity
  8
2
  6
CONTINUOUS
 62
     7
100
AcDbCircle
 10
1330.316511
 20
751.667239
 30
0.0
 40
2.0
100
AcDbArc
 50
180.0
 51
-90.0
  0
ARC
  5
40C
100
AcDbEntity
  8
2
  6
CONTINUOUS
 62
     7
100
AcDbCircle
 10
1339.316511
 20
842.667239
 30
0.0
 40
2.0
100
AcDbArc
 50
0.0
 51
90.0
  0
ARC
  5
40D
100
AcDbEntity
  8
2
  6
CONTINUOUS
 62
     7
100
AcDbCircle
 10
1339.316511
 20
751.667239
 30
0.0
 40
2.0
100
AcDbArc
 50
-90.0
 51
0.0
  0
ARC
  5
40E
100
AcDbEntity
  8
2
  6
CONTINUOUS
 62
     7
100
AcDbCircle
 10
1345.316511
 20
819.017639
 30
0.0
 40
4.0
100
AcDbArc
 50
180.0
 51
-90.0
  0
ARC
  5
40F
100
AcDbEntity
  8
2
  6
CONTINUOUS
 62
     7
100
AcDbCircle
 10
1345.316511
 20
775.316839
 30
0.0
 40
4.0
100
AcDbArc
 50
90.0
 51
180.0
  0
ARC
  5
410
100
AcDbEntity
  8
2
  6
CONTINUOUS
 62
     7
100
AcDbCircle
 10
2727.316511
 20
767.067239
 30
0.0
 40
21.2504
100
AcDbArc
 50
64.9424
 51
115.0576
  0
ARC
  5
411
100
AcDbEntity
  8
2
  6
CONTINUOUS
 62
     7
100
AcDbCircle
 10
2924.316511
 20
842.667239
 30
0.0
 40
2.0
100
AcDbArc
 50
0.0
 51
90.0
  0
ARC
  5
412
100
AcDbEntity
  8
2
  6
CONTINUOUS
 62
     7
100
AcDbCircle
 10
2924.316511
 20
751.667239
 30
0.0
 40
2.0
100
AcDbArc
 50
-90.0
 51
0.0
  0
ARC
  5
413
100
AcDbEntity
  8
2
  6
CONTINUOUS
 62
     7
100
AcDbCircle
 10
2915.316511
 20
842.667239
 30
0.0
 40
2.0
100
AcDbArc
 50
90.0
 51
180.0
  0
ARC
  5
414
100
AcDbEntity
  8
2
  6
CONTINUOUS
 62
     7
100
AcDbCircle
 10
2915.316511
 20
751.667239
 30
0.0
 40
2.0
100
AcDbArc
 50
180.0
 51
-90.0
  0
ARC
  5
415
100
AcDbEntity
  8
2
  6
CONTINUOUS
 62
     7
100
AcDbCircle
 10
2909.316511
 20
819.017639
 30
0.0
 40
4.0
100
AcDbArc
 50
-90.0
 51
0.0
  0
ARC
  5
416
100
AcDbEntity
  8
2
  6
CONTINUOUS
 62
     7
100
AcDbCircle
 10
2909.316511
 20
775.316839
 30
0.0
 40
4.0
100
AcDbArc
 50
0.0
 51
90.0
  0
CIRCLE
  5
417
100
AcDbEntity
  8
2
  6
CONTINUOUS
 62
     7
100
AcDbCircle
 10
2727.316511
 20
743.316839
 30
0.0
 40
4.0416
  0
ARC
  5
418
100
AcDbEntity
  8
2
  6
CONTINUOUS
 62
     7
100
AcDbCircle
 10
2727.316511
 20
743.316839
 30
0.0
 40
7.0
100
AcDbArc
 50
90.0
 51
180.0
  0
CIRCLE
  5
419
100
AcDbEntity
  8
2
  6
CONTINUOUS
 62
     7
100
AcDbCircle
 10
2727.316511
 20
743.316839
 30
0.0
 40
2.5
  0
CIRCLE
  5
41A
100
AcDbEntity
  8
2
  6
CONTINUOUS
 62
     7
100
AcDbCircle
 10
2727.316511
 20
743.316839
 30
0.0
 40
3.5
  0
ARC
  5
41B
100
AcDbEntity
  8
2
  6
CONTINUOUS
 62
     7
100
AcDbCircle
 10
2721.816511
 20
750.816839
 30
0.0
 40
20.5
100
AcDbArc
 50
77.3196
 51
102.6804
  0
ARC
  5
41C
100
AcDbEntity
  8
2
  6
CONTINUOUS
 62
     7
100
AcDbCircle
 10
2732.816511
 20
750.816839
 30
0.0
 40
20.5
100
AcDbArc
 50
77.3196
 51
102.6804
  0
CIRCLE
  5
41D
100
AcDbEntity
  8
2
  6
CONTINUOUS
 62
     7
100
AcDbCircle
 10
2727.316511
 20
743.316839
 30
0.0
 40
2.0
  0
CIRCLE
  5
41E
100
AcDbEntity
  8
2
  6
CONTINUOUS
 62
     7
100
AcDbCircle
 10
1527.316511
 20
743.316839
 30
0.0
 40
4.0416
  0
ARC
  5
41F
100
AcDbEntity
  8
2
  6
CONTINUOUS
 62
     7
100
AcDbCircle
 10
1527.316511
 20
743.316839
 30
0.0
 40
7.0
100
AcDbArc
 50
90.0
 51
180.0
  0
CIRCLE
  5
420
100
AcDbEntity
  8
2
  6
CONTINUOUS
 62
     7
100
AcDbCircle
 10
1527.316511
 20
743.316839
 30
0.0
 40
2.5
  0
CIRCLE
  5
421
100
AcDbEntity
  8
2
  6
CONTINUOUS
 62
     7
100
AcDbCircle
 10
1527.316511
 20
743.316839
 30
0.0
 40
3.5
  0
ARC
  5
422
100
AcDbEntity
  8
2
  6
CONTINUOUS
 62
     7
100
AcDbCircle
 10
1521.816511
 20
750.816839
 30
0.0
 40
20.5
100
AcDbArc
 50
77.3196
 51
102.6804
  0
ARC
  5
423
100
AcDbEntity
  8
2
  6
CONTINUOUS
 62
     7
100
AcDbCircle
 10
1532.816511
 20
750.816839
 30
0.0
 40
20.5
100
AcDbArc
 50
77.3196
 51
102.6804
  0
CIRCLE
  5
424
100
AcDbEntity
  8
2
  6
CONTINUOUS
 62
     7
100
AcDbCircle
 10
1527.316511
 20
743.316839
 30
0.0
 40
2.0
  0
ARC
  5
425
100
AcDbEntity
  8
2
  6
CONTINUOUS
 62
     7
100
AcDbCircle
 10
1527.316511
 20
767.067239
 30
0.0
 40
21.2504
100
AcDbArc
 50
64.9424
 51
115.0576
  0
CIRCLE
  5
426
100
AcDbEntity
  8
2
  6
CONTINUOUS
 62
     7
100
AcDbCircle
 10
1927.316511
 20
743.316839
 30
0.0
 40
2.0
  0
ARC
  5
427
100
AcDbEntity
  8
2
  6
CONTINUOUS
 62
     7
100
AcDbCircle
 10
1927.316511
 20
767.067239
 30
0.0
 40
21.2504
100
AcDbArc
 50
64.9424
 51
115.0576
  0
CIRCLE
  5
428
100
AcDbEntity
  8
2
  6
CONTINUOUS
 62
     7
100
AcDbCircle
 10
1927.316511
 20
743.316839
 30
0.0
 40
4.0416
  0
ARC
  5
429
100
AcDbEntity
  8
2
  6
CONTINUOUS
 62
     7
100
AcDbCircle
 10
1927.316511
 20
743.316839
 30
0.0
 40
7.0
100
AcDbArc
 50
90.0
 51
180.0
  0
CIRCLE
  5
42A
100
AcDbEntity
  8
2
  6
CONTINUOUS
 62
     7
100
AcDbCircle
 10
1927.316511
 20
743.316839
 30
0.0
 40
2.5
  0
CIRCLE
  5
42B
100
AcDbEntity
  8
2
  6
CONTINUOUS
 62
     7
100
AcDbCircle
 10
1927.316511
 20
743.316839
 30
0.0
 40
3.5
  0
ARC
  5
42C
100
AcDbEntity
  8
2
  6
CONTINUOUS
 62
     7
100
AcDbCircle
 10
1921.816511
 20
750.816839
 30
0.0
 40
20.5
100
AcDbArc
 50
77.3196
 51
102.6804
  0
ARC
  5
42D
100
AcDbEntity
  8
2
  6
CONTINUOUS
 62
     7
100
AcDbCircle
 10
1932.816511
 20
750.816839
 30
0.0
 40
20.5
100
AcDbArc
 50
77.3196
 51
102.6804
  0
CIRCLE
  5
42E
100
AcDbEntity
  8
2
  6
CONTINUOUS
 62
     7
100
AcDbCircle
 10
2327.316511
 20
743.316839
 30
0.0
 40
2.0
  0
ARC
  5
42F
100
AcDbEntity
  8
2
  6
CONTINUOUS
 62
     7
100
AcDbCircle
 10
2327.316511
 20
767.067239
 30
0.0
 40
21.2504
100
AcDbArc
 50
64.9424
 51
115.0576
  0
CIRCLE
  5
430
100
AcDbEntity
  8
2
  6
CONTINUOUS
 62
     7
100
AcDbCircle
 10
2327.316511
 20
743.316839
 30
0.0
 40
4.0416
  0
ARC
  5
431
100
AcDbEntity
  8
2
  6
CONTINUOUS
 62
     7
100
AcDbCircle
 10
2327.316511
 20
743.316839
 30
0.0
 40
7.0
100
AcDbArc
 50
90.0
 51
180.0
  0
CIRCLE
  5
432
100
AcDbEntity
  8
2
  6
CONTINUOUS
 62
     7
100
AcDbCircle
 10
2327.316511
 20
743.316839
 30
0.0
 40
2.5
  0
CIRCLE
  5
433
100
AcDbEntity
  8
2
  6
CONTINUOUS
 62
     7
100
AcDbCircle
 10
2327.316511
 20
743.316839
 30
0.0
 40
3.5
  0
ARC
  5
434
100
AcDbEntity
  8
2
  6
CONTINUOUS
 62
     7
100
AcDbCircle
 10
2321.816511
 20
750.816839
 30
0.0
 40
20.5
100
AcDbArc
 50
77.3196
 51
102.6804
  0
ARC
  5
435
100
AcDbEntity
  8
2
  6
CONTINUOUS
 62
     7
100
AcDbCircle
 10
2332.816511
 20
750.816839
 30
0.0
 40
20.5
100
AcDbArc
 50
77.3196
 51
102.6804
  0
ARC
  5
436
100
AcDbEntity
  8
2
  6
CONTINUOUS
 62
     7
100
AcDbCircle
 10
1733.702911
 20
1142.667239
 30
0.0
 40
2.0
100
AcDbArc
 50
0.0
 51
90.0
  0
ARC
  5
437
100
AcDbEntity
  8
2
  6
CONTINUOUS
 62
     7
100
AcDbCircle
 10
1733.702911
 20
1051.667239
 30
0.0
 40
2.0
100
AcDbArc
 50
-90.0
 51
0.0
  0
ARC
  5
438
100
AcDbEntity
  8
2
  6
CONTINUOUS
 62
     7
100
AcDbCircle
 10
1724.702911
 20
1142.667239
 30
0.0
 40
2.0
100
AcDbArc
 50
90.0
 51
180.0
  0
ARC
  5
439
100
AcDbEntity
  8
2
  6
CONTINUOUS
 62
     7
100
AcDbCircle
 10
1724.702911
 20
1051.667239
 30
0.0
 40
2.0
100
AcDbArc
 50
180.0
 51
-90.0
  0
ARC
  5
43A
100
AcDbEntity
  8
2
  6
CONTINUOUS
 62
     7
100
AcDbCircle
 10
1718.702911
 20
1119.016839
 30
0.0
 40
4.0
100
AcDbArc
 50
-90.0
 51
0.0
  0
ARC
  5
43B
100
AcDbEntity
  8
2
  6
CONTINUOUS
 62
     7
100
AcDbCircle
 10
1718.702911
 20
1075.317639
 30
0.0
 40
4.0
100
AcDbArc
 50
0.0
 51
90.0
  0
ARC
  5
43C
100
AcDbEntity
  8
2
  6
CONTINUOUS
 62
     7
100
AcDbCircle
 10
336.702911
 20
1067.067239
 30
0.0
 40
21.2504
100
AcDbArc
 50
64.9424
 51
115.0576
  0
ARC
  5
43D
100
AcDbEntity
  8
2
  6
CONTINUOUS
 62
     7
100
AcDbCircle
 10
139.702911
 20
1142.667239
 30
0.0
 40
2.0
100
AcDbArc
 50
90.0
 51
180.0
  0
ARC
  5
43E
100
AcDbEntity
  8
2
  6
CONTINUOUS
 62
     7
100
AcDbCircle
 10
139.702911
 20
1051.667239
 30
0.0
 40
2.0
100
AcDbArc
 50
180.0
 51
-90.0
  0
ARC
  5
43F
100
AcDbEntity
  8
2
  6
CONTINUOUS
 62
     7
100
AcDbCircle
 10
148.702911
 20
1142.667239
 30
0.0
 40
2.0
100
AcDbArc
 50
0.0
 51
90.0
  0
ARC
  5
440
100
AcDbEntity
  8
2
  6
CONTINUOUS
 62
     7
100
AcDbCircle
 10
148.702911
 20
1051.667239
 30
0.0
 40
2.0
100
AcDbArc
 50
-90.0
 51
0.0
  0
ARC
  5
441
100
AcDbEntity
  8
2
  6
CONTINUOUS
 62
     7
100
AcDbCircle
 10
154.702911
 20
1119.016839
 30
0.0
 40
4.0
100
AcDbArc
 50
180.0
 51
-90.0
  0
ARC
  5
442
100
AcDbEntity
  8
2
  6
CONTINUOUS
 62
     7
100
AcDbCircle
 10
154.702911
 20
1075.317639
 30
0.0
 40
4.0
100
AcDbArc
 50
90.0
 51
180.0
  0
CIRCLE
  5
443
100
AcDbEntity
  8
2
  6
CONTINUOUS
 62
     7
100
AcDbCircle
 10
336.702911
 20
1043.317639
 30
0.0
 40
4.0416
  0
CIRCLE
  5
444
100
AcDbEntity
  8
2
  6
CONTINUOUS
 62
     7
100
AcDbCircle
 10
336.702911
 20
1043.317639
 30
0.0
 40
2.5
  0
CIRCLE
  5
445
100
AcDbEntity
  8
2
  6
CONTINUOUS
 62
     7
100
AcDbCircle
 10
336.702911
 20
1043.317639
 30
0.0
 40
3.5
  0
ARC
  5
446
100
AcDbEntity
  8
2
  6
CONTINUOUS
 62
     7
100
AcDbCircle
 10
342.202911
 20
1050.817639
 30
0.0
 40
20.5
100
AcDbArc
 50
77.3196
 51
102.6804
  0
ARC
  5
447
100
AcDbEntity
  8
2
  6
CONTINUOUS
 62
     7
100
AcDbCircle
 10
331.202911
 20
1050.817639
 30
0.0
 40
20.5
100
AcDbArc
 50
77.3196
 51
102.6804
  0
CIRCLE
  5
448
100
AcDbEntity
  8
2
  6
CONTINUOUS
 62
     7
100
AcDbCircle
 10
336.702911
 20
1043.317639
 30
0.0
 40
2.0
  0
CIRCLE
  5
449
100
AcDbEntity
  8
2
  6
CONTINUOUS
 62
     7
100
AcDbCircle
 10
1536.702911
 20
1043.317639
 30
0.0
 40
4.0416
  0
CIRCLE
  5
44A
100
AcDbEntity
  8
2
  6
CONTINUOUS
 62
     7
100
AcDbCircle
 10
1536.702911
 20
1043.317639
 30
0.0
 40
2.5
  0
CIRCLE
  5
44B
100
AcDbEntity
  8
2
  6
CONTINUOUS
 62
     7
100
AcDbCircle
 10
1536.702911
 20
1043.317639
 30
0.0
 40
3.5
  0
ARC
  5
44C
100
AcDbEntity
  8
2
  6
CONTINUOUS
 62
     7
100
AcDbCircle
 10
1542.202911
 20
1050.817639
 30
0.0
 40
20.5
100
AcDbArc
 50
77.3196
 51
102.6804
  0
ARC
  5
44D
100
AcDbEntity
  8
2
  6
CONTINUOUS
 62
     7
100
AcDbCircle
 10
1531.202911
 20
1050.817639
 30
0.0
 40
20.5
100
AcDbArc
 50
77.3196
 51
102.6804
  0
CIRCLE
  5
44E
100
AcDbEntity
  8
2
  6
CONTINUOUS
 62
     7
100
AcDbCircle
 10
1536.702911
 20
1043.317639
 30
0.0
 40
2.0
  0
ARC
  5
44F
100
AcDbEntity
  8
2
  6
CONTINUOUS
 62
     7
100
AcDbCircle
 10
1536.702911
 20
1067.067239
 30
0.0
 40
21.2504
100
AcDbArc
 50
64.9424
 51
115.0576
  0
CIRCLE
  5
450
100
AcDbEntity
  8
2
  6
CONTINUOUS
 62
     7
100
AcDbCircle
 10
1136.702911
 20
1043.317639
 30
0.0
 40
2.0
  0
ARC
  5
451
100
AcDbEntity
  8
2
  6
CONTINUOUS
 62
     7
100
AcDbCircle
 10
1136.702911
 20
1067.067239
 30
0.0
 40
21.2504
100
AcDbArc
 50
64.9424
 51
115.0576
  0
CIRCLE
  5
452
100
AcDbEntity
  8
2
  6
CONTINUOUS
 62
     7
100
AcDbCircle
 10
1136.702911
 20
1043.317639
 30
0.0
 40
4.0416
  0
CIRCLE
  5
453
100
AcDbEntity
  8
2
  6
CONTINUOUS
 62
     7
100
AcDbCircle
 10
1136.702911
 20
1043.317639
 30
0.0
 40
2.5
  0
CIRCLE
  5
454
100
AcDbEntity
  8
2
  6
CONTINUOUS
 62
     7
100
AcDbCircle
 10
1136.702911
 20
1043.317639
 30
0.0
 40
3.5
  0
ARC
  5
455
100
AcDbEntity
  8
2
  6
CONTINUOUS
 62
     7
100
AcDbCircle
 10
1142.202911
 20
1050.817639
 30
0.0
 40
20.5
100
AcDbArc
 50
77.3196
 51
102.6804
  0
ARC
  5
456
100
AcDbEntity
  8
2
  6
CONTINUOUS
 62
     7
100
AcDbCircle
 10
1131.202911
 20
1050.817639
 30
0.0
 40
20.5
100
AcDbArc
 50
77.3196
 51
102.6804
  0
CIRCLE
  5
457
100
AcDbEntity
  8
2
  6
CONTINUOUS
 62
     7
100
AcDbCircle
 10
736.702911
 20
1043.317639
 30
0.0
 40
2.0
  0
ARC
  5
458
100
AcDbEntity
  8
2
  6
CONTINUOUS
 62
     7
100
AcDbCircle
 10
736.702911
 20
1067.067239
 30
0.0
 40
21.2504
100
AcDbArc
 50
64.9424
 51
115.0576
  0
CIRCLE
  5
459
100
AcDbEntity
  8
2
  6
CONTINUOUS
 62
     7
100
AcDbCircle
 10
736.702911
 20
1043.317639
 30
0.0
 40
4.0416
  0
CIRCLE
  5
45A
100
AcDbEntity
  8
2
  6
CONTINUOUS
 62
     7
100
AcDbCircle
 10
736.702911
 20
1043.317639
 30
0.0
 40
2.5
  0
CIRCLE
  5
45B
100
AcDbEntity
  8
2
  6
CONTINUOUS
 62
     7
100
AcDbCircle
 10
736.702911
 20
1043.317639
 30
0.0
 40
3.5
  0
ARC
  5
45C
100
AcDbEntity
  8
2
  6
CONTINUOUS
 62
     7
100
AcDbCircle
 10
742.202911
 20
1050.817639
 30
0.0
 40
20.5
100
AcDbArc
 50
77.3196
 51
102.6804
  0
ARC
  5
45D
100
AcDbEntity
  8
2
  6
CONTINUOUS
 62
     7
100
AcDbCircle
 10
731.202911
 20
1050.817639
 30
0.0
 40
20.5
100
AcDbArc
 50
77.3196
 51
102.6804
  0
ARC
  5
45E
100
AcDbEntity
  8
2
  6
CONTINUOUS
 62
     7
100
AcDbCircle
 10
1293.822111
 20
797.167239
 30
0.0
 40
47.5
100
AcDbArc
 50
90.0
 51
180.0
  0
ARC
  5
45F
100
AcDbEntity
  8
2
  6
CONTINUOUS
 62
     7
100
AcDbCircle
 10
1293.822111
 20
797.167239
 30
0.0
 40
25.5
100
AcDbArc
 50
90.0
 51
180.0
  0
ARC
  5
460
100
AcDbEntity
  8
2
  6
CENTER
 62
     7
100
AcDbCircle
 10
1293.822111
 20
797.167239
 30
0.0
 40
35.0
100
AcDbArc
 50
90.0
 51
180.0
  0
CIRCLE
  5
461
100
AcDbEntity
  8
2
  6
CONTINUOUS
 62
     7
100
AcDbCircle
 10
1269.074111
 20
821.916039
 30
0.0
 40
7.5
  0
CIRCLE
  5
462
100
AcDbEntity
  8
2
  6
CONTINUOUS
 62
     7
100
AcDbCircle
 10
1269.074111
 20
772.418439
 30
0.0
 40
7.5
  0
ARC
  5
463
100
AcDbEntity
  8
2
  6
CONTINUOUS
 62
     7
100
AcDbCircle
 10
1293.822111
 20
797.167239
 30
0.0
 40
25.5
100
AcDbArc
 50
180.0
 51
-90.0
  0
ARC
  5
464
100
AcDbEntity
  8
2
  6
CENTER
 62
     7
100
AcDbCircle
 10
1293.822111
 20
797.167239
 30
0.0
 40
35.0
100
AcDbArc
 50
180.0
 51
-90.0
  0
ARC
  5
465
100
AcDbEntity
  8
2
  6
CONTINUOUS
 62
     7
100
AcDbCircle
 10
1293.822111
 20
797.167239
 30
0.0
 40
47.5
100
AcDbArc
 50
180.0
 51
-90.0
  0
ARC
  5
466
100
AcDbEntity
  8
2
  6
CONTINUOUS
 62
     7
100
AcDbCircle
 10
1293.822111
 20
797.167239
 30
0.0
 40
10.8496
100
AcDbArc
 50
90.0
 51
180.0
  0
ARC
  5
467
100
AcDbEntity
  8
2
  6
CONTINUOUS
 62
     7
100
AcDbCircle
 10
1293.822111
 20
797.167239
 30
0.0
 40
7.1504
100
AcDbArc
 50
180.0
 51
-90.0
  0
ARC
  5
468
100
AcDbEntity
  8
2
  6
CONTINUOUS
 62
     7
100
AcDbCircle
 10
1293.822111
 20
797.167239
 30
0.0
 40
10.8496
100
AcDbArc
 50
180.0
 51
-90.0
  0
ARC
  5
469
100
AcDbEntity
  8
2
  6
CONTINUOUS
 62
     7
100
AcDbCircle
 10
1293.822111
 20
797.167239
 30
0.0
 40
7.1504
100
AcDbArc
 50
90.0
 51
-90.0
  0
ARC
  5
46A
100
AcDbEntity
  8
2
  6
CONTINUOUS
 62
     7
100
AcDbCircle
 10
240.452511
 20
1078.129639
 30
0.0
 40
1.8128
100
AcDbArc
 50
-133.6028
 51
-46.3972
  0
ARC
  5
46B
100
AcDbEntity
  8
2
  6
CONTINUOUS
 62
     7
100
AcDbCircle
 10
236.702911
 20
1082.817639
 30
0.0
 40
6.5
100
AcDbArc
 50
-112.6199
 51
-90.0
  0
ARC
  5
46C
100
AcDbEntity
  8
2
  6
CONTINUOUS
 62
     7
100
AcDbCircle
 10
236.702911
 20
1082.817639
 30
0.0
 40
6.5
100
AcDbArc
 50
-90.0
 51
-67.3801
  0
ARC
  5
46D
100
AcDbEntity
  8
2
  6
CONTINUOUS
 62
     7
100
AcDbCircle
 10
232.952511
 20
1078.129639
 30
0.0
 40
1.8128
100
AcDbArc
 50
-133.6028
 51
-46.3972
  0
ARC
  5
46E
100
AcDbEntity
  8
2
  6
CONTINUOUS
 62
     7
100
AcDbCircle
 10
940.452511
 20
1078.129639
 30
0.0
 40
1.8128
100
AcDbArc
 50
-133.6028
 51
-46.3972
  0
ARC
  5
46F
100
AcDbEntity
  8
2
  6
CONTINUOUS
 62
     7
100
AcDbCircle
 10
936.702911
 20
1082.817639
 30
0.0
 40
6.5
100
AcDbArc
 50
-112.6199
 51
-90.0
  0
ARC
  5
470
100
AcDbEntity
  8
2
  6
CONTINUOUS
 62
     7
100
AcDbCircle
 10
936.702911
 20
1082.817639
 30
0.0
 40
6.5
100
AcDbArc
 50
-90.0
 51
-67.3801
  0
ARC
  5
471
100
AcDbEntity
  8
2
  6
CONTINUOUS
 62
     7
100
AcDbCircle
 10
932.952511
 20
1078.129639
 30
0.0
 40
1.8128
100
AcDbArc
 50
-133.6028
 51
-46.3972
  0
ARC
  5
472
100
AcDbEntity
  8
2
  6
CONTINUOUS
 62
     7
100
AcDbCircle
 10
2131.066911
 20
778.129639
 30
0.0
 40
1.8128
100
AcDbArc
 50
-133.6028
 51
-46.3972
  0
ARC
  5
473
100
AcDbEntity
  8
2
  6
CONTINUOUS
 62
     7
100
AcDbCircle
 10
2127.316511
 20
782.816839
 30
0.0
 40
6.5
100
AcDbArc
 50
-112.6199
 51
-90.0
  0
ARC
  5
474
100
AcDbEntity
  8
2
  6
CONTINUOUS
 62
     7
100
AcDbCircle
 10
2127.316511
 20
782.816839
 30
0.0
 40
6.5
100
AcDbArc
 50
-90.0
 51
-67.3801
  0
ARC
  5
475
100
AcDbEntity
  8
2
  6
CONTINUOUS
 62
     7
100
AcDbCircle
 10
2123.566911
 20
778.129639
 30
0.0
 40
1.8128
100
AcDbArc
 50
-133.6028
 51
-46.3972
  0
ARC
  5
476
100
AcDbEntity
  8
2
  6
CONTINUOUS
 62
     7
100
AcDbCircle
 10
1481.066911
 20
778.129639
 30
0.0
 40
1.8128
100
AcDbArc
 50
-133.6028
 51
-46.3972
  0
ARC
  5
477
100
AcDbEntity
  8
2
  6
CONTINUOUS
 62
     7
100
AcDbCircle
 10
1477.316511
 20
782.816839
 30
0.0
 40
6.5
100
AcDbArc
 50
-112.6199
 51
-90.0
  0
ARC
  5
478
100
AcDbEntity
  8
2
  6
CONTINUOUS
 62
     7
100
AcDbCircle
 10
1477.316511
 20
782.816839
 30
0.0
 40
6.5
100
AcDbArc
 50
-90.0
 51
-67.3801
  0
ARC
  5
479
100
AcDbEntity
  8
2
  6
CONTINUOUS
 62
     7
100
AcDbCircle
 10
1473.566911
 20
778.129639
 30
0.0
 40
1.8128
100
AcDbArc
 50
-133.6028
 51
-46.3972
  0
ARC
  5
47A
100
AcDbEntity
  8
2
  6
CONTINUOUS
 62
     7
100
AcDbCircle
 10
1536.702911
 20
1043.317639
 30
0.0
 40
7.0
100
AcDbArc
 50
90.0
 51
180.0
  0
ARC
  5
47B
100
AcDbEntity
  8
2
  6
CONTINUOUS
 62
     7
100
AcDbCircle
 10
1136.702911
 20
1043.317639
 30
0.0
 40
7.0
100
AcDbArc
 50
90.0
 51
180.0
  0
ARC
  5
47C
100
AcDbEntity
  8
2
  6
CONTINUOUS
 62
     7
100
AcDbCircle
 10
736.702911
 20
1043.317639
 30
0.0
 40
7.0
100
AcDbArc
 50
90.0
 51
180.0
  0
ARC
  5
47D
100
AcDbEntity
  8
2
  6
CONTINUOUS
 62
     7
100
AcDbCircle
 10
336.702911
 20
1043.317639
 30
0.0
 40
7.0
100
AcDbArc
 50
90.0
 51
180.0
  0
ARC
  5
47E
100
AcDbEntity
  8
2
  6
CONTINUOUS
 62
     7
100
AcDbCircle
 10
1590.452511
 20
1078.129639
 30
0.0
 40
1.8128
100
AcDbArc
 50
-133.6028
 51
-46.3972
  0
ARC
  5
47F
100
AcDbEntity
  8
2
  6
CONTINUOUS
 62
     7
100
AcDbCircle
 10
1586.702911
 20
1082.817639
 30
0.0
 40
6.5
100
AcDbArc
 50
-112.6199
 51
-90.0
  0
ARC
  5
480
100
AcDbEntity
  8
2
  6
CONTINUOUS
 62
     7
100
AcDbCircle
 10
1586.702911
 20
1082.817639
 30
0.0
 40
6.5
100
AcDbArc
 50
-90.0
 51
-67.3801
  0
ARC
  5
481
100
AcDbEntity
  8
2
  6
CONTINUOUS
 62
     7
100
AcDbCircle
 10
1582.952511
 20
1078.129639
 30
0.0
 40
1.8128
100
AcDbArc
 50
-133.6028
 51
-46.3972
  0
ARC
  5
482
100
AcDbEntity
  8
2
  6
CONTINUOUS
 62
     7
100
AcDbCircle
 10
2831.066911
 20
778.129639
 30
0.0
 40
1.8128
100
AcDbArc
 50
-133.6028
 51
-46.3972
  0
ARC
  5
483
100
AcDbEntity
  8
2
  6
CONTINUOUS
 62
     7
100
AcDbCircle
 10
2827.316511
 20
782.816839
 30
0.0
 40
6.5
100
AcDbArc
 50
-112.6199
 51
-90.0
  0
ARC
  5
484
100
AcDbEntity
  8
2
  6
CONTINUOUS
 62
     7
100
AcDbCircle
 10
2827.316511
 20
782.816839
 30
0.0
 40
6.5
100
AcDbArc
 50
-90.0
 51
-67.3801
  0
ARC
  5
485
100
AcDbEntity
  8
2
  6
CONTINUOUS
 62
     7
100
AcDbCircle
 10
2823.566911
 20
778.129639
 30
0.0
 40
1.8128
100
AcDbArc
 50
-133.6028
 51
-46.3972
  0
ARC
  5
486
100
AcDbEntity
  8
2
  6
CONTINUOUS
 62
     7
100
AcDbCircle
 10
232.202911
 20
948.817639
 30
0.0
 40
2.5
100
AcDbArc
 50
180.0
 51
0.0
  0
ARC
  5
487
100
AcDbEntity
  8
2
  6
CONTINUOUS
 62
     7
100
AcDbCircle
 10
232.202911
 20
1052.816839
 30
0.0
 40
2.5
100
AcDbArc
 50
0.0
 51
180.0
  0
CIRCLE
  5
488
100
AcDbEntity
  8
2
  6
CONTINUOUS
 62
     7
100
AcDbCircle
 10
232.202911
 20
960.817639
 30
0.0
 40
11.0
  0
CIRCLE
  5
489
100
AcDbEntity
  8
2
  6
CONTINUOUS
 62
     7
100
AcDbCircle
 10
232.202911
 20
1040.817639
 30
0.0
 40
7.0
  0
CIRCLE
  5
48A
100
AcDbEntity
  8
2
  6
CONTINUOUS
 62
     7
100
AcDbCircle
 10
232.202911
 20
1040.817639
 30
0.0
 40
11.0
  0
CIRCLE
  5
48B
100
AcDbEntity
  8
2
  6
CONTINUOUS
 62
     7
100
AcDbCircle
 10
232.202911
 20
1040.817639
 30
0.0
 40
5.0
  0
CIRCLE
  5
48C
100
AcDbEntity
  8
2
  6
CONTINUOUS
 62
     7
100
AcDbCircle
 10
232.202911
 20
1040.817639
 30
0.0
 40
4.2
  0
CIRCLE
  5
48D
100
AcDbEntity
  8
2
  6
CONTINUOUS
 62
     7
100
AcDbCircle
 10
232.202911
 20
1040.817639
 30
0.0
 40
3.2504
  0
CIRCLE
  5
48E
100
AcDbEntity
  8
2
  6
CONTINUOUS
 62
     7
100
AcDbCircle
 10
232.202911
 20
960.817639
 30
0.0
 40
5.0
  0
CIRCLE
  5
48F
100
AcDbEntity
  8
2
  6
CONTINUOUS
 62
     7
100
AcDbCircle
 10
232.202911
 20
960.817639
 30
0.0
 40
4.2
  0
CIRCLE
  5
490
100
AcDbEntity
  8
2
  6
CONTINUOUS
 62
     7
100
AcDbCircle
 10
232.202911
 20
960.817639
 30
0.0
 40
7.0
  0
CIRCLE
  5
491
100
AcDbEntity
  8
2
  6
CONTINUOUS
 62
     7
100
AcDbCircle
 10
232.202911
 20
960.817639
 30
0.0
 40
3.2504
  0
ARC
  5
492
100
AcDbEntity
  8
2
  6
CONTINUOUS
 62
     7
100
AcDbCircle
 10
932.202911
 20
948.817639
 30
0.0
 40
2.5
100
AcDbArc
 50
180.0
 51
0.0
  0
ARC
  5
493
100
AcDbEntity
  8
2
  6
CONTINUOUS
 62
     7
100
AcDbCircle
 10
932.202911
 20
1052.816839
 30
0.0
 40
2.5
100
AcDbArc
 50
0.0
 51
180.0
  0
CIRCLE
  5
494
100
AcDbEntity
  8
2
  6
CONTINUOUS
 62
     7
100
AcDbCircle
 10
932.202911
 20
960.817639
 30
0.0
 40
11.0
  0
CIRCLE
  5
495
100
AcDbEntity
  8
2
  6
CONTINUOUS
 62
     7
100
AcDbCircle
 10
932.202911
 20
1040.817639
 30
0.0
 40
7.0
  0
CIRCLE
  5
496
100
AcDbEntity
  8
2
  6
CONTINUOUS
 62
     7
100
AcDbCircle
 10
932.202911
 20
1040.817639
 30
0.0
 40
11.0
  0
CIRCLE
  5
497
100
AcDbEntity
  8
2
  6
CONTINUOUS
 62
     7
100
AcDbCircle
 10
932.202911
 20
1040.817639
 30
0.0
 40
5.0
  0
CIRCLE
  5
498
100
AcDbEntity
  8
2
  6
CONTINUOUS
 62
     7
100
AcDbCircle
 10
932.202911
 20
1040.817639
 30
0.0
 40
4.2
  0
CIRCLE
  5
499
100
AcDbEntity
  8
2
  6
CONTINUOUS
 62
     7
100
AcDbCircle
 10
932.202911
 20
1040.817639
 30
0.0
 40
3.2504
  0
CIRCLE
  5
49A
100
AcDbEntity
  8
2
  6
CONTINUOUS
 62
     7
100
AcDbCircle
 10
932.202911
 20
960.817639
 30
0.0
 40
5.0
  0
CIRCLE
  5
49B
100
AcDbEntity
  8
2
  6
CONTINUOUS
 62
     7
100
AcDbCircle
 10
932.202911
 20
960.817639
 30
0.0
 40
4.2
  0
CIRCLE
  5
49C
100
AcDbEntity
  8
2
  6
CONTINUOUS
 62
     7
100
AcDbCircle
 10
932.202911
 20
960.817639
 30
0.0
 40
7.0
  0
CIRCLE
  5
49D
100
AcDbEntity
  8
2
  6
CONTINUOUS
 62
     7
100
AcDbCircle
 10
932.202911
 20
960.817639
 30
0.0
 40
3.2504
  0
ARC
  5
49E
100
AcDbEntity
  8
2
  6
CONTINUOUS
 62
     7
100
AcDbCircle
 10
1582.202911
 20
948.817639
 30
0.0
 40
2.5
100
AcDbArc
 50
180.0
 51
0.0
  0
ARC
  5
49F
100
AcDbEntity
  8
2
  6
CONTINUOUS
 62
     7
100
AcDbCircle
 10
1582.202911
 20
1052.816839
 30
0.0
 40
2.5
100
AcDbArc
 50
0.0
 51
180.0
  0
CIRCLE
  5
4A0
100
AcDbEntity
  8
2
  6
CONTINUOUS
 62
     7
100
AcDbCircle
 10
1582.202911
 20
960.817639
 30
0.0
 40
11.0
  0
CIRCLE
  5
4A1
100
AcDbEntity
  8
2
  6
CONTINUOUS
 62
     7
100
AcDbCircle
 10
1582.202911
 20
1040.817639
 30
0.0
 40
7.0
  0
CIRCLE
  5
4A2
100
AcDbEntity
  8
2
  6
CONTINUOUS
 62
     7
100
AcDbCircle
 10
1582.202911
 20
1040.817639
 30
0.0
 40
11.0
  0
CIRCLE
  5
4A3
100
AcDbEntity
  8
2
  6
CONTINUOUS
 62
     7
100
AcDbCircle
 10
1582.202911
 20
1040.817639
 30
0.0
 40
5.0
  0
CIRCLE
  5
4A4
100
AcDbEntity
  8
2
  6
CONTINUOUS
 62
     7
100
AcDbCircle
 10
1582.202911
 20
1040.817639
 30
0.0
 40
4.2
  0
CIRCLE
  5
4A5
100
AcDbEntity
  8
2
  6
CONTINUOUS
 62
     7
100
AcDbCircle
 10
1582.202911
 20
1040.817639
 30
0.0
 40
3.2504
  0
CIRCLE
  5
4A6
100
AcDbEntity
  8
2
  6
CONTINUOUS
 62
     7
100
AcDbCircle
 10
1582.202911
 20
960.817639
 30
0.0
 40
5.0
  0
CIRCLE
  5
4A7
100
AcDbEntity
  8
2
  6
CONTINUOUS
 62
     7
100
AcDbCircle
 10
1582.202911
 20
960.817639
 30
0.0
 40
4.2
  0
CIRCLE
  5
4A8
100
AcDbEntity
  8
2
  6
CONTINUOUS
 62
     7
100
AcDbCircle
 10
1582.202911
 20
960.817639
 30
0.0
 40
7.0
  0
CIRCLE
  5
4A9
100
AcDbEntity
  8
2
  6
CONTINUOUS
 62
     7
100
AcDbCircle
 10
1582.202911
 20
960.817639
 30
0.0
 40
3.2504
  0
ARC
  5
4AA
100
AcDbEntity
  8
2
  6
CONTINUOUS
 62
     7
100
AcDbCircle
 10
1472.816511
 20
648.817639
 30
0.0
 40
2.5
100
AcDbArc
 50
180.0
 51
0.0
  0
ARC
  5
4AB
100
AcDbEntity
  8
2
  6
CONTINUOUS
 62
     7
100
AcDbCircle
 10
1472.816511
 20
752.816839
 30
0.0
 40
2.5
100
AcDbArc
 50
0.0
 51
180.0
  0
CIRCLE
  5
4AC
100
AcDbEntity
  8
2
  6
CONTINUOUS
 62
     7
100
AcDbCircle
 10
1472.816511
 20
660.817639
 30
0.0
 40
11.0
  0
CIRCLE
  5
4AD
100
AcDbEntity
  8
2
  6
CONTINUOUS
 62
     7
100
AcDbCircle
 10
1472.816511
 20
740.817639
 30
0.0
 40
7.0
  0
CIRCLE
  5
4AE
100
AcDbEntity
  8
2
  6
CONTINUOUS
 62
     7
100
AcDbCircle
 10
1472.816511
 20
740.817639
 30
0.0
 40
11.0
  0
CIRCLE
  5
4AF
100
AcDbEntity
  8
2
  6
CONTINUOUS
 62
     7
100
AcDbCircle
 10
1472.816511
 20
740.817639
 30
0.0
 40
5.0
  0
CIRCLE
  5
4B0
100
AcDbEntity
  8
2
  6
CONTINUOUS
 62
     7
100
AcDbCircle
 10
1472.816511
 20
740.817639
 30
0.0
 40
4.2
  0
CIRCLE
  5
4B1
100
AcDbEntity
  8
2
  6
CONTINUOUS
 62
     7
100
AcDbCircle
 10
1472.816511
 20
740.817639
 30
0.0
 40
3.2504
  0
CIRCLE
  5
4B2
100
AcDbEntity
  8
2
  6
CONTINUOUS
 62
     7
100
AcDbCircle
 10
1472.816511
 20
660.817639
 30
0.0
 40
5.0
  0
CIRCLE
  5
4B3
100
AcDbEntity
  8
2
  6
CONTINUOUS
 62
     7
100
AcDbCircle
 10
1472.816511
 20
660.817639
 30
0.0
 40
4.2
  0
CIRCLE
  5
4B4
100
AcDbEntity
  8
2
  6
CONTINUOUS
 62
     7
100
AcDbCircle
 10
1472.816511
 20
660.817639
 30
0.0
 40
7.0
  0
CIRCLE
  5
4B5
100
AcDbEntity
  8
2
  6
CONTINUOUS
 62
     7
100
AcDbCircle
 10
1472.816511
 20
660.817639
 30
0.0
 40
3.2504
  0
ARC
  5
4B6
100
AcDbEntity
  8
2
  6
CONTINUOUS
 62
     7
100
AcDbCircle
 10
2122.816511
 20
648.817639
 30
0.0
 40
2.5
100
AcDbArc
 50
180.0
 51
0.0
  0
ARC
  5
4B7
100
AcDbEntity
  8
2
  6
CONTINUOUS
 62
     7
100
AcDbCircle
 10
2122.816511
 20
752.816839
 30
0.0
 40
2.5
100
AcDbArc
 50
0.0
 51
180.0
  0
CIRCLE
  5
4B8
100
AcDbEntity
  8
2
  6
CONTINUOUS
 62
     7
100
AcDbCircle
 10
2122.816511
 20
660.817639
 30
0.0
 40
11.0
  0
CIRCLE
  5
4B9
100
AcDbEntity
  8
2
  6
CONTINUOUS
 62
     7
100
AcDbCircle
 10
2122.816511
 20
740.817639
 30
0.0
 40
7.0
  0
CIRCLE
  5
4BA
100
AcDbEntity
  8
2
  6
CONTINUOUS
 62
     7
100
AcDbCircle
 10
2122.816511
 20
740.817639
 30
0.0
 40
11.0
  0
CIRCLE
  5
4BB
100
AcDbEntity
  8
2
  6
CONTINUOUS
 62
     7
100
AcDbCircle
 10
2122.816511
 20
740.817639
 30
0.0
 40
5.0
  0
CIRCLE
  5
4BC
100
AcDbEntity
  8
2
  6
CONTINUOUS
 62
     7
100
AcDbCircle
 10
2122.816511
 20
740.817639
 30
0.0
 40
4.2
  0
CIRCLE
  5
4BD
100
AcDbEntity
  8
2
  6
CONTINUOUS
 62
     7
100
AcDbCircle
 10
2122.816511
 20
740.817639
 30
0.0
 40
3.2504
  0
CIRCLE
  5
4BE
100
AcDbEntity
  8
2
  6
CONTINUOUS
 62
     7
100
AcDbCircle
 10
2122.816511
 20
660.817639
 30
0.0
 40
5.0
  0
CIRCLE
  5
4BF
100
AcDbEntity
  8
2
  6
CONTINUOUS
 62
     7
100
AcDbCircle
 10
2122.816511
 20
660.817639
 30
0.0
 40
4.2
  0
CIRCLE
  5
4C0
100
AcDbEntity
  8
2
  6
CONTINUOUS
 62
     7
100
AcDbCircle
 10
2122.816511
 20
660.817639
 30
0.0
 40
7.0
  0
CIRCLE
  5
4C1
100
AcDbEntity
  8
2
  6
CONTINUOUS
 62
     7
100
AcDbCircle
 10
2122.816511
 20
660.817639
 30
0.0
 40
3.2504
  0
ARC
  5
4C2
100
AcDbEntity
  8
2
  6
CONTINUOUS
 62
     7
100
AcDbCircle
 10
2822.816511
 20
648.817639
 30
0.0
 40
2.5
100
AcDbArc
 50
180.0
 51
0.0
  0
ARC
  5
4C3
100
AcDbEntity
  8
2
  6
CONTINUOUS
 62
     7
100
AcDbCircle
 10
2822.816511
 20
752.816839
 30
0.0
 40
2.5
100
AcDbArc
 50
0.0
 51
180.0
  0
CIRCLE
  5
4C4
100
AcDbEntity
  8
2
  6
CONTINUOUS
 62
     7
100
AcDbCircle
 10
2822.816511
 20
660.817639
 30
0.0
 40
11.0
  0
CIRCLE
  5
4C5
100
AcDbEntity
  8
2
  6
CONTINUOUS
 62
     7
100
AcDbCircle
 10
2822.816511
 20
740.817639
 30
0.0
 40
7.0
  0
CIRCLE
  5
4C6
100
AcDbEntity
  8
2
  6
CONTINUOUS
 62
     7
100
AcDbCircle
 10
2822.816511
 20
740.817639
 30
0.0
 40
11.0
  0
CIRCLE
  5
4C7
100
AcDbEntity
  8
2
  6
CONTINUOUS
 62
     7
100
AcDbCircle
 10
2822.816511
 20
740.817639
 30
0.0
 40
5.0
  0
CIRCLE
  5
4C8
100
AcDbEntity
  8
2
  6
CONTINUOUS
 62
     7
100
AcDbCircle
 10
2822.816511
 20
740.817639
 30
0.0
 40
4.2
  0
CIRCLE
  5
4C9
100
AcDbEntity
  8
2
  6
CONTINUOUS
 62
     7
100
AcDbCircle
 10
2822.816511
 20
740.817639
 30
0.0
 40
3.2504
  0
CIRCLE
  5
4CA
100
AcDbEntity
  8
2
  6
CONTINUOUS
 62
     7
100
AcDbCircle
 10
2822.816511
 20
660.817639
 30
0.0
 40
5.0
  0
CIRCLE
  5
4CB
100
AcDbEntity
  8
2
  6
CONTINUOUS
 62
     7
100
AcDbCircle
 10
2822.816511
 20
660.817639
 30
0.0
 40
4.2
  0
CIRCLE
  5
4CC
100
AcDbEntity
  8
2
  6
CONTINUOUS
 62
     7
100
AcDbCircle
 10
2822.816511
 20
660.817639
 30
0.0
 40
7.0
  0
CIRCLE
  5
4CD
100
AcDbEntity
  8
2
  6
CONTINUOUS
 62
     7
100
AcDbCircle
 10
2822.816511
 20
660.817639
 30
0.0
 40
3.2504
  0
LINE
  5
4CE
100
AcDbEntity
  8
2
  6
CONTINUOUS
 62
     7
100
AcDbLine
 10
1336.702911
 20
1108.016839
 30
0.0
 11
1586.702911
 21
1108.016839
 31
0.0
  0
LINE
  5
4CF
100
AcDbEntity
  8
2
  6
CONTINUOUS
 62
     7
100
AcDbLine
 10
1736.316511
 20
808.017639
 30
0.0
 11
1727.316511
 21
808.017639
 31
0.0
  0
LINE
  5
4D0
100
AcDbEntity
  8
2
  6
CONTINUOUS
 62
     7
100
AcDbLine
 10
1711.702911
 20
1097.167239
 30
0.0
 11
1711.702911
 21
1108.016839
 31
0.0
  0
LINE
  5
4D1
100
AcDbEntity
  8
2
  6
CONTINUOUS
 62
     7
100
AcDbLine
 10
161.702911
 20
1097.167239
 30
0.0
 11
161.702911
 21
1108.016839
 31
0.0
  0
LINE
  5
4D2
100
AcDbEntity
  8
2
  6
CONTINUOUS
 62
     7
100
AcDbLine
 10
1352.316511
 20
797.167239
 30
0.0
 11
1352.316511
 21
808.017639
 31
0.0
  0
LINE
  5
4D3
100
AcDbEntity
  8
2
  6
CONTINUOUS
 62
     7
100
AcDbLine
 10
2902.316511
 20
797.167239
 30
0.0
 11
2902.316511
 21
808.017639
 31
0.0
  0
LINE
  5
4D4
100
AcDbEntity
  8
2
  6
CONTINUOUS
 62
     7
100
AcDbLine
 10
2907.316511
 20
815.017639
 30
0.0
 11
2907.316511
 21
797.167239
 31
0.0
  0
LINE
  5
4D5
100
AcDbEntity
  8
2
  6
CONTINUOUS
 62
     7
100
AcDbLine
 10
2913.316511
 20
842.667239
 30
0.0
 11
2913.316511
 21
797.167239
 31
0.0
  0
LINE
  5
4D6
100
AcDbEntity
  8
2
  6
CONTINUOUS
 62
     7
100
AcDbLine
 10
2926.316511
 20
842.667239
 30
0.0
 11
2926.316511
 21
797.167239
 31
0.0
  0
LINE
  5
4D7
100
AcDbEntity
  8
2
  6
CONTINUOUS
 62
     7
100
AcDbLine
 10
1727.316511
 20
808.017639
 30
0.0
 11
2902.316511
 21
808.017639
 31
0.0
  0
LINE
  5
4D8
100
AcDbEntity
  8
2
  6
CONTINUOUS
 62
     7
100
AcDbLine
 10
1347.316511
 20
815.017639
 30
0.0
 11
1347.316511
 21
797.167239
 31
0.0
  0
LINE
  5
4D9
100
AcDbEntity
  8
2
  6
CONTINUOUS
 62
     7
100
AcDbLine
 10
1341.316511
 20
842.667239
 30
0.0
 11
1341.316511
 21
797.167239
 31
0.0
  0
LINE
  5
4DA
100
AcDbEntity
  8
2
  6
CONTINUOUS
 62
     7
100
AcDbLine
 10
1328.316511
 20
842.667239
 30
0.0
 11
1328.316511
 21
797.167239
 31
0.0
  0
LINE
  5
4DB
100
AcDbEntity
  8
2
  6
CONTINUOUS
 62
     7
100
AcDbLine
 10
1352.316511
 20
808.017639
 30
0.0
 11
1727.316511
 21
808.017639
 31
0.0
  0
LINE
  5
4DC
100
AcDbEntity
  8
2
  6
CONTINUOUS
 62
     7
100
AcDbLine
 10
1716.702911
 20
1115.016839
 30
0.0
 11
1716.702911
 21
1097.167239
 31
0.0
  0
LINE
  5
4DD
100
AcDbEntity
  8
2
  6
CONTINUOUS
 62
     7
100
AcDbLine
 10
1722.702911
 20
1142.667239
 30
0.0
 11
1722.702911
 21
1097.167239
 31
0.0
  0
LINE
  5
4DE
100
AcDbEntity
  8
2
  6
CONTINUOUS
 62
     7
100
AcDbLine
 10
1735.702911
 20
1142.667239
 30
0.0
 11
1735.702911
 21
1097.167239
 31
0.0
  0
LINE
  5
4DF
100
AcDbEntity
  8
2
  6
CONTINUOUS
 62
     7
100
AcDbLine
 10
1711.702911
 20
1108.016839
 30
0.0
 11
1586.702911
 21
1108.016839
 31
0.0
  0
LINE
  5
4E0
100
AcDbEntity
  8
2
  6
CONTINUOUS
 62
     7
100
AcDbLine
 10
156.702911
 20
1115.016839
 30
0.0
 11
156.702911
 21
1097.167239
 31
0.0
  0
LINE
  5
4E1
100
AcDbEntity
  8
2
  6
CONTINUOUS
 62
     7
100
AcDbLine
 10
150.702911
 20
1142.667239
 30
0.0
 11
150.702911
 21
1097.167239
 31
0.0
  0
LINE
  5
4E2
100
AcDbEntity
  8
2
  6
CONTINUOUS
 62
     7
100
AcDbLine
 10
137.702911
 20
1142.667239
 30
0.0
 11
137.702911
 21
1097.167239
 31
0.0
  0
LINE
  5
4E3
100
AcDbEntity
  8
2
  6
CONTINUOUS
 62
     7
100
AcDbLine
 10
161.702911
 20
1108.016839
 30
0.0
 11
1336.702911
 21
1108.016839
 31
0.0
  0
LINE
  5
4E4
100
AcDbEntity
  8
2
  6
CONTINUOUS
 62
     7
100
AcDbLine
 10
239.702911
 20
1106.316839
 30
0.0
 11
239.702911
 21
1086.317639
 31
0.0
  0
LINE
  5
4E5
100
AcDbEntity
  8
2
  6
CONTINUOUS
 62
     7
100
AcDbLine
 10
233.702911
 20
1106.316839
 30
0.0
 11
233.702911
 21
1086.317639
 31
0.0
  0
ARC
  5
4E6
100
AcDbEntity
  8
2
  6
CONTINUOUS
 62
     7
100
AcDbCircle
 10
236.702911
 20
1106.316839
 30
0.0
 40
3.0
100
AcDbArc
 50
0.0
 51
180.0
  0
LINE
  5
4E7
100
AcDbEntity
  8
2
  6
CONTINUOUS
 62
     7
100
AcDbLine
 10
939.702911
 20
1106.316839
 30
0.0
 11
939.702911
 21
1086.317639
 31
0.0
  0
LINE
  5
4E8
100
AcDbEntity
  8
2
  6
CONTINUOUS
 62
     7
100
AcDbLine
 10
933.702911
 20
1106.316839
 30
0.0
 11
933.702911
 21
1086.317639
 31
0.0
  0
ARC
  5
4E9
100
AcDbEntity
  8
2
  6
CONTINUOUS
 62
     7
100
AcDbCircle
 10
936.702911
 20
1106.316839
 30
0.0
 40
3.0
100
AcDbArc
 50
0.0
 51
180.0
  0
LINE
  5
4EA
100
AcDbEntity
  8
2
  6
CONTINUOUS
 62
     7
100
AcDbLine
 10
1589.702911
 20
1106.316839
 30
0.0
 11
1589.702911
 21
1086.317639
 31
0.0
  0
LINE
  5
4EB
100
AcDbEntity
  8
2
  6
CONTINUOUS
 62
     7
100
AcDbLine
 10
1583.702911
 20
1106.316839
 30
0.0
 11
1583.702911
 21
1086.317639
 31
0.0
  0
ARC
  5
4EC
100
AcDbEntity
  8
2
  6
CONTINUOUS
 62
     7
100
AcDbCircle
 10
1586.702911
 20
1106.316839
 30
0.0
 40
3.0
100
AcDbArc
 50
0.0
 51
180.0
  0
LINE
  5
4ED
100
AcDbEntity
  8
2
  6
CONTINUOUS
 62
     7
100
AcDbLine
 10
1480.316511
 20
806.316839
 30
0.0
 11
1480.316511
 21
786.317639
 31
0.0
  0
LINE
  5
4EE
100
AcDbEntity
  8
2
  6
CONTINUOUS
 62
     7
100
AcDbLine
 10
1474.316511
 20
806.316839
 30
0.0
 11
1474.316511
 21
786.317639
 31
0.0
  0
ARC
  5
4EF
100
AcDbEntity
  8
2
  6
CONTINUOUS
 62
     7
100
AcDbCircle
 10
1477.316511
 20
806.316839
 30
0.0
 40
3.0
100
AcDbArc
 50
0.0
 51
180.0
  0
LINE
  5
4F0
100
AcDbEntity
  8
2
  6
CONTINUOUS
 62
     7
100
AcDbLine
 10
2130.316511
 20
806.316839
 30
0.0
 11
2130.316511
 21
786.317639
 31
0.0
  0
LINE
  5
4F1
100
AcDbEntity
  8
2
  6
CONTINUOUS
 62
     7
100
AcDbLine
 10
2124.316511
 20
806.316839
 30
0.0
 11
2124.316511
 21
786.317639
 31
0.0
  0
ARC
  5
4F2
100
AcDbEntity
  8
2
  6
CONTINUOUS
 62
     7
100
AcDbCircle
 10
2127.316511
 20
806.316839
 30
0.0
 40
3.0
100
AcDbArc
 50
0.0
 51
180.0
  0
LINE
  5
4F3
100
AcDbEntity
  8
2
  6
CONTINUOUS
 62
     7
100
AcDbLine
 10
2830.316511
 20
806.316839
 30
0.0
 11
2830.316511
 21
786.317639
 31
0.0
  0
LINE
  5
4F4
100
AcDbEntity
  8
2
  6
CONTINUOUS
 62
     7
100
AcDbLine
 10
2824.316511
 20
806.316839
 30
0.0
 11
2824.316511
 21
786.317639
 31
0.0
  0
ARC
  5
4F5
100
AcDbEntity
  8
2
  6
CONTINUOUS
 62
     7
100
AcDbCircle
 10
2827.316511
 20
806.316839
 30
0.0
 40
3.0
100
AcDbArc
 50
0.0
 51
180.0
  0
LINE
  5
4F6
100
AcDbEntity
  8
2
  6
CONTINUOUS
 62
     7
100
AcDbLine
 10
1348.702771
 20
1108.016839
 30
0.0
 11
1345.702631
 21
1111.016979
 31
0.0
  0
LINE
  5
4F7
100
AcDbEntity
  8
2
  6
CONTINUOUS
 62
     7
100
AcDbLine
 10
1324.703051
 20
1108.016839
 30
0.0
 11
1327.703191
 21
1111.016979
 31
0.0
  0
LINE
  5
4F8
100
AcDbEntity
  8
2
  6
CONTINUOUS
 62
     7
100
AcDbLine
 10
1345.702631
 20
1128.016839
 30
0.0
 11
1344.702351
 21
1129.016419
 31
0.0
  0
LINE
  5
4F9
100
AcDbEntity
  8
2
  6
CONTINUOUS
 62
     7
100
AcDbLine
 10
1340.702631
 20
1140.716685
 30
0.0
 11
1340.702631
 21
1132.716545
 31
0.0
  0
LINE
  5
4FA
100
AcDbEntity
  8
2
  6
CONTINUOUS
 62
     7
100
AcDbLine
 10
1340.702631
 20
1140.716685
 30
0.0
 11
1336.702911
 21
1140.716685
 31
0.0
  0
LINE
  5
4FB
100
AcDbEntity
  8
2
  6
CONTINUOUS
 62
     7
100
AcDbLine
 10
1327.703191
 20
1128.016839
 30
0.0
 11
1328.702771
 21
1129.016419
 31
0.0
  0
LINE
  5
4FC
100
AcDbEntity
  8
2
  6
CONTINUOUS
 62
     7
100
AcDbLine
 10
1332.702491
 20
1140.716685
 30
0.0
 11
1332.702491
 21
1132.716545
 31
0.0
  0
LINE
  5
4FD
100
AcDbEntity
  8
2
  6
CONTINUOUS
 62
     7
100
AcDbLine
 10
1332.702491
 20
1140.716685
 30
0.0
 11
1336.702911
 21
1140.716685
 31
0.0
  0
LINE
  5
4FE
100
AcDbEntity
  8
2
  6
CONTINUOUS
 62
     7
100
AcDbLine
 10
1330.027145
 20
1132.716545
 30
0.0
 11
1336.702911
 21
1132.716545
 31
0.0
  0
LINE
  5
4FF
100
AcDbEntity
  8
2
  6
CONTINUOUS
 62
     7
100
AcDbLine
 10
1343.377978
 20
1132.716545
 30
0.0
 11
1336.702911
 21
1132.716545
 31
0.0
  0
LINE
  5
500
100
AcDbEntity
  8
2
  6
CONTINUOUS
 62
     7
100
AcDbLine
 10
1328.702771
 20
1129.016419
 30
0.0
 11
1336.702911
 21
1129.016419
 31
0.0
  0
LINE
  5
501
100
AcDbEntity
  8
2
  6
CONTINUOUS
 62
     7
100
AcDbLine
 10
1344.702351
 20
1129.016419
 30
0.0
 11
1336.702911
 21
1129.016419
 31
0.0
  0
LINE
  5
502
100
AcDbEntity
  8
2
  6
CONTINUOUS
 62
     7
100
AcDbLine
 10
1327.703191
 20
1111.016979
 30
0.0
 11
1336.702911
 21
1111.016979
 31
0.0
  0
LINE
  5
503
100
AcDbEntity
  8
2
  6
CONTINUOUS
 62
     7
100
AcDbLine
 10
1345.702631
 20
1111.016979
 30
0.0
 11
1336.702911
 21
1111.016979
 31
0.0
  0
LINE
  5
504
100
AcDbEntity
  8
2
  6
CONTINUOUS
 62
     7
100
AcDbLine
 10
1327.703191
 20
1128.016839
 30
0.0
 11
1327.703191
 21
1111.016979
 31
0.0
  0
LINE
  5
505
100
AcDbEntity
  8
2
  6
CONTINUOUS
 62
     7
100
AcDbLine
 10
1345.702631
 20
1128.016839
 30
0.0
 11
1345.702631
 21
1111.016979
 31
0.0
  0
LINE
  5
506
100
AcDbEntity
  8
2
  6
CONTINUOUS
 62
     7
100
AcDbLine
 10
1343.281193
 20
1129.016419
 30
0.0
 11
1343.377978
 21
1132.716545
 31
0.0
  0
LINE
  5
507
100
AcDbEntity
  8
2
  6
CONTINUOUS
 62
     7
100
AcDbLine
 10
1330.124223
 20
1129.016419
 30
0.0
 11
1330.027145
 21
1132.716545
 31
0.0
  0
LINE
  5
508
100
AcDbEntity
  8
2
  6
CONTINUOUS
 62
     7
100
AcDbLine
 10
1739.316371
 20
808.017639
 30
0.0
 11
1736.316231
 21
811.017779
 31
0.0
  0
LINE
  5
509
100
AcDbEntity
  8
2
  6
CONTINUOUS
 62
     7
100
AcDbLine
 10
1715.316651
 20
808.017639
 30
0.0
 11
1718.316791
 21
811.017779
 31
0.0
  0
LINE
  5
50A
100
AcDbEntity
  8
2
  6
CONTINUOUS
 62
     7
100
AcDbLine
 10
1736.316231
 20
828.017639
 30
0.0
 11
1735.315951
 21
829.017219
 31
0.0
  0
LINE
  5
50B
100
AcDbEntity
  8
2
  6
CONTINUOUS
 62
     7
100
AcDbLine
 10
1731.316231
 20
840.717485
 30
0.0
 11
1731.316231
 21
832.717345
 31
0.0
  0
LINE
  5
50C
100
AcDbEntity
  8
2
  6
CONTINUOUS
 62
     7
100
AcDbLine
 10
1731.316231
 20
840.717485
 30
0.0
 11
1727.316511
 21
840.717485
 31
0.0
  0
LINE
  5
50D
100
AcDbEntity
  8
2
  6
CONTINUOUS
 62
     7
100
AcDbLine
 10
1718.316791
 20
828.017639
 30
0.0
 11
1719.316371
 21
829.017219
 31
0.0
  0
LINE
  5
50E
100
AcDbEntity
  8
2
  6
CONTINUOUS
 62
     7
100
AcDbLine
 10
1723.316091
 20
840.717485
 30
0.0
 11
1723.316091
 21
832.717345
 31
0.0
  0
LINE
  5
50F
100
AcDbEntity
  8
2
  6
CONTINUOUS
 62
     7
100
AcDbLine
 10
1723.316091
 20
840.717485
 30
0.0
 11
1727.316511
 21
840.717485
 31
0.0
  0
LINE
  5
510
100
AcDbEntity
  8
2
  6
CONTINUOUS
 62
     7
100
AcDbLine
 10
1720.640745
 20
832.717345
 30
0.0
 11
1727.316511
 21
832.717345
 31
0.0
  0
LINE
  5
511
100
AcDbEntity
  8
2
  6
CONTINUOUS
 62
     7
100
AcDbLine
 10
1733.991578
 20
832.717345
 30
0.0
 11
1727.316511
 21
832.717345
 31
0.0
  0
LINE
  5
512
100
AcDbEntity
  8
2
  6
CONTINUOUS
 62
     7
100
AcDbLine
 10
1719.316371
 20
829.017219
 30
0.0
 11
1727.316511
 21
829.017219
 31
0.0
  0
LINE
  5
513
100
AcDbEntity
  8
2
  6
CONTINUOUS
 62
     7
100
AcDbLine
 10
1735.315951
 20
829.017219
 30
0.0
 11
1727.316511
 21
829.017219
 31
0.0
  0
LINE
  5
514
100
AcDbEntity
  8
2
  6
CONTINUOUS
 62
     7
100
AcDbLine
 10
1718.316791
 20
811.017779
 30
0.0
 11
1727.316511
 21
811.017779
 31
0.0
  0
LINE
  5
515
100
AcDbEntity
  8
2
  6
CONTINUOUS
 62
     7
100
AcDbLine
 10
1736.316231
 20
811.017779
 30
0.0
 11
1727.316511
 21
811.017779
 31
0.0
  0
LINE
  5
516
100
AcDbEntity
  8
2
  6
CONTINUOUS
 62
     7
100
AcDbLine
 10
1718.316791
 20
828.017639
 30
0.0
 11
1718.316791
 21
811.017779
 31
0.0
  0
LINE
  5
517
100
AcDbEntity
  8
2
  6
CONTINUOUS
 62
     7
100
AcDbLine
 10
1736.316231
 20
828.017639
 30
0.0
 11
1736.316231
 21
811.017779
 31
0.0
  0
LINE
  5
518
100
AcDbEntity
  8
2
  6
CONTINUOUS
 62
     7
100
AcDbLine
 10
1733.894793
 20
829.017219
 30
0.0
 11
1733.991578
 21
832.717345
 31
0.0
  0
LINE
  5
519
100
AcDbEntity
  8
2
  6
CONTINUOUS
 62
     7
100
AcDbLine
 10
1720.737823
 20
829.017219
 30
0.0
 11
1720.640745
 21
832.717345
 31
0.0
  0
INSERT
  5
525
100
AcDbEntity
  8
2
  6
CONTINUOUS
 62
     7
100
AcDbBlockReference
  2
*G1
 10
0.0
 20
0.0
 30
0.0
  0
INSERT
  5
531
100
AcDbEntity
  8
2
  6
CONTINUOUS
 62
     7
100
AcDbBlockReference
  2
*G2
 10
0.0
 20
0.0
 30
0.0
  0
INSERT
  5
53D
100
AcDbEntity
  8
2
  6
CONTINUOUS
 62
     7
100
AcDbBlockReference
  2
*G3
 10
0.0
 20
0.0
 30
0.0
  0
INSERT
  5
549
100
AcDbEntity
  8
2
  6
CONTINUOUS
 62
     7
100
AcDbBlockReference
  2
*G4
 10
0.0
 20
0.0
 30
0.0
  0
INSERT
  5
555
100
AcDbEntity
  8
2
  6
CONTINUOUS
 62
     7
100
AcDbBlockReference
  2
*G5
 10
0.0
 20
0.0
 30
0.0
  0
INSERT
  5
561
100
AcDbEntity
  8
2
  6
CONTINUOUS
 62
     7
100
AcDbBlockReference
  2
*G6
 10
0.0
 20
0.0
 30
0.0
  0
INSERT
  5
56D
100
AcDbEntity
  8
2
  6
CONTINUOUS
 62
     7
100
AcDbBlockReference
  2
*G7
 10
0.0
 20
0.0
 30
0.0
  0
INSERT
  5
579
100
AcDbEntity
  8
2
  6
CONTINUOUS
 62
     7
100
AcDbBlockReference
  2
*G8
 10
0.0
 20
0.0
 30
0.0
  0
LINE
  5
57A
100
AcDbEntity
  8
2
  6
CONTINUOUS
 62
     7
100
AcDbLine
 10
1538.723733
 20
1329.990516
 30
0.0
 11
1538.723733
 21
1326.990516
 31
0.0
  0
LINE
  5
57B
100
AcDbEntity
  8
2
  6
CONTINUOUS
 62
     7
100
AcDbLine
 10
1534.682411
 20
1329.990516
 30
0.0
 11
1534.682411
 21
1326.990516
 31
0.0
  0
LINE
  5
57C
100
AcDbEntity
  8
2
  6
CONTINUOUS
 62
     7
100
AcDbLine
 10
1532.702911
 20
1329.990516
 30
0.0
 11
1540.702911
 21
1329.990516
 31
0.0
  0
LINE
  5
57D
100
AcDbEntity
  8
2
  6
CONTINUOUS
 62
     7
100
AcDbLine
 10
1537.154254
 20
1330.990516
 30
0.0
 11
1536.210746
 21
1329.990516
 31
0.0
  0
LINE
  5
57E
100
AcDbEntity
  8
2
  6
CONTINUOUS
 62
     7
100
AcDbLine
 10
1529.702911
 20
1332.990516
 30
0.0
 11
1529.702911
 21
1330.990516
 31
0.0
  0
LINE
  5
57F
100
AcDbEntity
  8
2
  6
CONTINUOUS
 62
     7
100
AcDbLine
 10
1529.702911
 20
1330.990516
 30
0.0
 11
1543.702911
 21
1330.990516
 31
0.0
  0
LINE
  5
580
100
AcDbEntity
  8
2
  6
CONTINUOUS
 62
     7
100
AcDbLine
 10
1543.702911
 20
1330.990516
 30
0.0
 11
1543.702911
 21
1332.990516
 31
0.0
  0
LINE
  5
581
100
AcDbEntity
  8
2
  6
CONTINUOUS
 62
     7
100
AcDbLine
 10
1529.702911
 20
1332.990516
 30
0.0
 11
1538.702911
 21
1332.990516
 31
0.0
  0
LINE
  5
582
100
AcDbEntity
  8
2
  6
CONTINUOUS
 62
     7
100
AcDbLine
 10
1538.702911
 20
1332.990516
 30
0.0
 11
1538.702911
 21
1334.463767
 31
0.0
  0
LINE
  5
583
100
AcDbEntity
  8
2
  6
CONTINUOUS
 62
     7
100
AcDbLine
 10
1538.702911
 20
1334.463767
 30
0.0
 11
1543.702911
 21
1334.463767
 31
0.0
  0
LINE
  5
584
100
AcDbEntity
  8
2
  6
CONTINUOUS
 62
     7
100
AcDbLine
 10
1543.702911
 20
1334.463767
 30
0.0
 11
1543.702911
 21
1332.990516
 31
0.0
  0
LINE
  5
585
100
AcDbEntity
  8
2
  6
CONTINUOUS
 62
     7
100
AcDbLine
 10
1538.702911
 20
1332.990516
 30
0.0
 11
1538.702911
 21
1330.990516
 31
0.0
  0
LINE
  5
586
100
AcDbEntity
  8
2
  6
CONTINUOUS
 62
     7
100
AcDbLine
 10
1526.702911
 20
1335.140516
 30
0.0
 11
1526.702911
 21
1333.490516
 31
0.0
  0
LINE
  5
587
100
AcDbEntity
  8
2
  6
CONTINUOUS
 62
     7
100
AcDbLine
 10
1526.702911
 20
1333.490516
 30
0.0
 11
1538.702911
 21
1333.490516
 31
0.0
  0
LINE
  5
588
100
AcDbEntity
  8
2
  6
CONTINUOUS
 62
     7
100
AcDbLine
 10
1546.702911
 20
1335.140516
 30
0.0
 11
1546.702911
 21
1333.490516
 31
0.0
  0
LINE
  5
589
100
AcDbEntity
  8
2
  6
CONTINUOUS
 62
     7
100
AcDbLine
 10
1546.702911
 20
1333.490516
 30
0.0
 11
1543.702911
 21
1333.490516
 31
0.0
  0
LINE
  5
58A
100
AcDbEntity
  8
2
  6
CONTINUOUS
 62
     7
100
AcDbLine
 10
1531.115806
 20
1333.490516
 30
0.0
 11
1531.115806
 21
1332.990516
 31
0.0
  0
LINE
  5
58B
100
AcDbEntity
  8
2
  6
CONTINUOUS
 62
     7
100
AcDbLine
 10
1543.702911
 20
1330.990516
 30
0.0
 11
1543.702911
 21
1326.30413
 31
0.0
  0
ARC
  5
58C
100
AcDbEntity
  8
2
  6
CONTINUOUS
 62
     7
100
AcDbCircle
 10
1542.702911
 20
1326.30413
 30
0.0
 40
1.0
100
AcDbArc
 50
-90.0
 51
0.0
  0
LINE
  5
58D
100
AcDbEntity
  8
2
  6
CONTINUOUS
 62
     7
100
AcDbLine
 10
1529.702911
 20
1330.990516
 30
0.0
 11
1529.702911
 21
1326.30413
 31
0.0
  0
LINE
  5
58E
100
AcDbEntity
  8
2
  6
CONTINUOUS
 62
     7
100
AcDbLine
 10
1530.702911
 20
1325.30413
 30
0.0
 11
1542.702911
 21
1325.30413
 31
0.0
  0
ARC
  5
58F
100
AcDbEntity
  8
2
  6
CONTINUOUS
 62
     7
100
AcDbCircle
 10
1530.702911
 20
1326.30413
 30
0.0
 40
1.0
100
AcDbArc
 50
180.0
 51
-90.0
  0
ARC
  5
590
100
AcDbEntity
  8
2
  6
CONTINUOUS
 62
     7
100
AcDbCircle
 10
1534.847435
 20
1323.716923
 30
0.0
 40
9.939362
100
AcDbArc
 50
7.449198
 51
27.007116
  0
ARC
  5
591
100
AcDbEntity
  8
2
  6
CONTINUOUS
 62
     7
100
AcDbCircle
 10
1538.558387
 20
1323.716923
 30
0.0
 40
9.939362
100
AcDbArc
 50
152.992884
 51
172.550802
  0
LINE
  5
592
100
AcDbEntity
  8
2
  6
CONTINUOUS
 62
     7
100
AcDbLine
 10
1544.702911
 20
1325.005532
 30
0.0
 11
1544.702911
 21
1313.294802
 31
0.0
  0
ARC
  5
593
100
AcDbEntity
  8
2
  6
CONTINUOUS
 62
     7
100
AcDbCircle
 10
1542.577911
 20
1311.396766
 30
0.0
 40
2.65625
100
AcDbArc
 50
-64.942384
 51
31.273298
  0
ARC
  5
594
100
AcDbEntity
  8
2
  6
CONTINUOUS
 62
     7
100
AcDbCircle
 10
1545.702911
 20
1313.294802
 30
0.0
 40
1.0
100
AcDbArc
 50
180.0
 51
-148.726702
  0
LINE
  5
595
100
AcDbEntity
  8
2
  6
CONTINUOUS
 62
     7
100
AcDbLine
 10
1536.702911
 20
1308.990516
 30
0.0
 11
1543.702911
 21
1308.990516
 31
0.0
  0
LINE
  5
596
100
AcDbEntity
  8
2
  6
CONTINUOUS
 62
     7
100
AcDbLine
 10
1528.702911
 20
1325.005532
 30
0.0
 11
1528.702911
 21
1313.294802
 31
0.0
  0
ARC
  5
597
100
AcDbEntity
  8
2
  6
CONTINUOUS
 62
     7
100
AcDbCircle
 10
1530.827911
 20
1311.396766
 30
0.0
 40
2.65625
100
AcDbArc
 50
148.726702
 51
-115.057616
  0
ARC
  5
598
100
AcDbEntity
  8
2
  6
CONTINUOUS
 62
     7
100
AcDbCircle
 10
1527.702911
 20
1313.294802
 30
0.0
 40
1.0
100
AcDbArc
 50
-31.273298
 51
0.0
  0
LINE
  5
599
100
AcDbEntity
  8
2
  6
CONTINUOUS
 62
     7
100
AcDbLine
 10
1536.702911
 20
1308.990516
 30
0.0
 11
1529.702911
 21
1308.990516
 31
0.0
  0
LINE
  5
59A
100
AcDbEntity
  8
2
  6
CONTINUOUS
 62
     7
100
AcDbLine
 10
1532.702911
 20
1330.990516
 30
0.0
 11
1532.702911
 21
1326.990516
 31
0.0
  0
LINE
  5
59B
100
AcDbEntity
  8
2
  6
CONTINUOUS
 62
     7
100
AcDbLine
 10
1532.702911
 20
1326.990516
 30
0.0
 11
1540.702911
 21
1326.990516
 31
0.0
  0
LINE
  5
59C
100
AcDbEntity
  8
2
  6
CONTINUOUS
 62
     7
100
AcDbLine
 10
1540.702911
 20
1326.990516
 30
0.0
 11
1540.702911
 21
1330.990516
 31
0.0
  0
LINE
  5
59D
100
AcDbEntity
  8
2
  6
CONTINUOUS
 62
     7
100
AcDbLine
 10
1540.702911
 20
1330.990516
 30
0.0
 11
1532.702911
 21
1330.990516
 31
0.0
  0
LINE
  5
59E
100
AcDbEntity
  8
2
  6
CONTINUOUS
 62
     7
100
AcDbLine
 10
1733.702911
 20
1298.490516
 30
0.0
 11
1724.702911
 21
1298.490516
 31
0.0
  0
LINE
  5
59F
100
AcDbEntity
  8
2
  6
CONTINUOUS
 62
     7
100
AcDbLine
 10
1722.702911
 20
1300.490516
 30
0.0
 11
1722.702911
 21
1345.990516
 31
0.0
  0
LINE
  5
5A0
100
AcDbEntity
  8
2
  6
CONTINUOUS
 62
     7
100
AcDbLine
 10
1718.702911
 20
1328.140916
 30
0.0
 11
1716.702911
 21
1328.140916
 31
0.0
  0
LINE
  5
5A1
100
AcDbEntity
  8
2
  6
CONTINUOUS
 62
     7
100
AcDbLine
 10
1716.702911
 20
1328.140916
 30
0.0
 11
1716.702911
 21
1345.990516
 31
0.0
  0
LINE
  5
5A2
100
AcDbEntity
  8
2
  6
CONTINUOUS
 62
     7
100
AcDbLine
 10
1716.702911
 20
1330.140116
 30
0.0
 11
1711.702911
 21
1335.140116
 31
0.0
  0
LINE
  5
5A3
100
AcDbEntity
  8
2
  6
CONTINUOUS
 62
     7
100
AcDbLine
 10
1711.702911
 20
1345.990516
 30
0.0
 11
1711.702911
 21
1335.140116
 31
0.0
  0
LINE
  5
5A4
100
AcDbEntity
  8
2
  6
CONTINUOUS
 62
     7
100
AcDbLine
 10
1735.702911
 20
1345.990516
 30
0.0
 11
1735.702911
 21
1300.490516
 31
0.0
  0
ARC
  5
5A5
100
AcDbEntity
  8
2
  6
CONTINUOUS
 62
     7
100
AcDbCircle
 10
1733.702911
 20
1300.490516
 30
0.0
 40
2.0
100
AcDbArc
 50
-90.0
 51
0.0
  0
ARC
  5
5A6
100
AcDbEntity
  8
2
  6
CONTINUOUS
 62
     7
100
AcDbCircle
 10
1724.702911
 20
1300.490516
 30
0.0
 40
2.0
100
AcDbArc
 50
180.0
 51
-90.0
  0
ARC
  5
5A7
100
AcDbEntity
  8
2
  6
CONTINUOUS
 62
     7
100
AcDbCircle
 10
1718.702911
 20
1324.140916
 30
0.0
 40
4.0
100
AcDbArc
 50
0.0
 51
90.0
  0
LINE
  5
5A8
100
AcDbEntity
  8
2
  6
CONTINUOUS
 62
     7
100
AcDbLine
 10
1718.702911
 20
1363.840116
 30
0.0
 11
1716.702911
 21
1363.840116
 31
0.0
  0
LINE
  5
5A9
100
AcDbEntity
  8
2
  6
CONTINUOUS
 62
     7
100
AcDbLine
 10
1716.702911
 20
1363.840116
 30
0.0
 11
1716.702911
 21
1345.990516
 31
0.0
  0
LINE
  5
5AA
100
AcDbEntity
  8
2
  6
CONTINUOUS
 62
     7
100
AcDbLine
 10
1716.702911
 20
1361.840116
 30
0.0
 11
1711.702911
 21
1356.840116
 31
0.0
  0
ARC
  5
5AB
100
AcDbEntity
  8
2
  6
CONTINUOUS
 62
     7
100
AcDbCircle
 10
1718.702911
 20
1367.840116
 30
0.0
 40
4.0
100
AcDbArc
 50
-90.0
 51
0.0
  0
LINE
  5
5AC
100
AcDbEntity
  8
2
  6
CONTINUOUS
 62
     7
100
AcDbLine
 10
1733.702911
 20
1393.490516
 30
0.0
 11
1724.702911
 21
1393.490516
 31
0.0
  0
LINE
  5
5AD
100
AcDbEntity
  8
2
  6
CONTINUOUS
 62
     7
100
AcDbLine
 10
1722.702911
 20
1391.490516
 30
0.0
 11
1722.702911
 21
1345.990516
 31
0.0
  0
LINE
  5
5AE
100
AcDbEntity
  8
2
  6
CONTINUOUS
 62
     7
100
AcDbLine
 10
1735.702911
 20
1345.990516
 30
0.0
 11
1735.702911
 21
1391.490516
 31
0.0
  0
ARC
  5
5AF
100
AcDbEntity
  8
2
  6
CONTINUOUS
 62
     7
100
AcDbCircle
 10
1733.702911
 20
1391.490516
 30
0.0
 40
2.0
100
AcDbArc
 50
0.0
 51
90.0
  0
ARC
  5
5B0
100
AcDbEntity
  8
2
  6
CONTINUOUS
 62
     7
100
AcDbCircle
 10
1724.702911
 20
1391.490516
 30
0.0
 40
2.0
100
AcDbArc
 50
90.0
 51
180.0
  0
LINE
  5
5B1
100
AcDbEntity
  8
2
  6
CONTINUOUS
 62
     7
100
AcDbLine
 10
1711.702911
 20
1356.840116
 30
0.0
 11
1711.702911
 21
1345.990516
 31
0.0
  0
LINE
  5
5B2
100
AcDbEntity
  8
2
  6
CONTINUOUS
 62
     7
100
AcDbLine
 10
1736.702911
 20
1320.490516
 30
0.0
 11
1735.702911
 21
1320.490516
 31
0.0
  0
LINE
  5
5B3
100
AcDbEntity
  8
2
  6
CONTINUOUS
 62
     7
100
AcDbLine
 10
1736.702911
 20
1371.490516
 30
0.0
 11
1735.702911
 21
1371.490516
 31
0.0
  0
LINE
  5
5B4
100
AcDbEntity
  8
2
  6
CONTINUOUS
 62
     7
100
AcDbLine
 10
1736.702911
 20
1320.490516
 30
0.0
 11
1736.702911
 21
1345.990516
 31
0.0
  0
LINE
  5
5B5
100
AcDbEntity
  8
2
  6
CONTINUOUS
 62
     7
100
AcDbLine
 10
1736.702911
 20
1371.490516
 30
0.0
 11
1736.702911
 21
1345.990516
 31
0.0
  0
LINE
  5
5B6
100
AcDbEntity
  8
2
  6
CONTINUOUS
 62
     7
100
AcDbLine
 10
1138.723733
 20
1329.990516
 30
0.0
 11
1138.723733
 21
1326.990516
 31
0.0
  0
LINE
  5
5B7
100
AcDbEntity
  8
2
  6
CONTINUOUS
 62
     7
100
AcDbLine
 10
1134.682411
 20
1329.990516
 30
0.0
 11
1134.682411
 21
1326.990516
 31
0.0
  0
LINE
  5
5B8
100
AcDbEntity
  8
2
  6
CONTINUOUS
 62
     7
100
AcDbLine
 10
1132.702911
 20
1329.990516
 30
0.0
 11
1140.702911
 21
1329.990516
 31
0.0
  0
LINE
  5
5B9
100
AcDbEntity
  8
2
  6
CONTINUOUS
 62
     7
100
AcDbLine
 10
1137.154254
 20
1330.990516
 30
0.0
 11
1136.210746
 21
1329.990516
 31
0.0
  0
LINE
  5
5BA
100
AcDbEntity
  8
2
  6
CONTINUOUS
 62
     7
100
AcDbLine
 10
1129.702911
 20
1332.990516
 30
0.0
 11
1129.702911
 21
1330.990516
 31
0.0
  0
LINE
  5
5BB
100
AcDbEntity
  8
2
  6
CONTINUOUS
 62
     7
100
AcDbLine
 10
1129.702911
 20
1330.990516
 30
0.0
 11
1143.702911
 21
1330.990516
 31
0.0
  0
LINE
  5
5BC
100
AcDbEntity
  8
2
  6
CONTINUOUS
 62
     7
100
AcDbLine
 10
1143.702911
 20
1330.990516
 30
0.0
 11
1143.702911
 21
1332.990516
 31
0.0
  0
LINE
  5
5BD
100
AcDbEntity
  8
2
  6
CONTINUOUS
 62
     7
100
AcDbLine
 10
1129.702911
 20
1332.990516
 30
0.0
 11
1138.702911
 21
1332.990516
 31
0.0
  0
LINE
  5
5BE
100
AcDbEntity
  8
2
  6
CONTINUOUS
 62
     7
100
AcDbLine
 10
1138.702911
 20
1332.990516
 30
0.0
 11
1138.702911
 21
1334.463767
 31
0.0
  0
LINE
  5
5BF
100
AcDbEntity
  8
2
  6
CONTINUOUS
 62
     7
100
AcDbLine
 10
1138.702911
 20
1334.463767
 30
0.0
 11
1143.702911
 21
1334.463767
 31
0.0
  0
LINE
  5
5C0
100
AcDbEntity
  8
2
  6
CONTINUOUS
 62
     7
100
AcDbLine
 10
1143.702911
 20
1334.463767
 30
0.0
 11
1143.702911
 21
1332.990516
 31
0.0
  0
LINE
  5
5C1
100
AcDbEntity
  8
2
  6
CONTINUOUS
 62
     7
100
AcDbLine
 10
1138.702911
 20
1332.990516
 30
0.0
 11
1138.702911
 21
1330.990516
 31
0.0
  0
LINE
  5
5C2
100
AcDbEntity
  8
2
  6
CONTINUOUS
 62
     7
100
AcDbLine
 10
1126.702911
 20
1335.140516
 30
0.0
 11
1126.702911
 21
1333.490516
 31
0.0
  0
LINE
  5
5C3
100
AcDbEntity
  8
2
  6
CONTINUOUS
 62
     7
100
AcDbLine
 10
1126.702911
 20
1333.490516
 30
0.0
 11
1138.702911
 21
1333.490516
 31
0.0
  0
LINE
  5
5C4
100
AcDbEntity
  8
2
  6
CONTINUOUS
 62
     7
100
AcDbLine
 10
1146.702911
 20
1335.140516
 30
0.0
 11
1146.702911
 21
1333.490516
 31
0.0
  0
LINE
  5
5C5
100
AcDbEntity
  8
2
  6
CONTINUOUS
 62
     7
100
AcDbLine
 10
1146.702911
 20
1333.490516
 30
0.0
 11
1143.702911
 21
1333.490516
 31
0.0
  0
LINE
  5
5C6
100
AcDbEntity
  8
2
  6
CONTINUOUS
 62
     7
100
AcDbLine
 10
1131.115806
 20
1333.490516
 30
0.0
 11
1131.115806
 21
1332.990516
 31
0.0
  0
LINE
  5
5C7
100
AcDbEntity
  8
2
  6
CONTINUOUS
 62
     7
100
AcDbLine
 10
1143.702911
 20
1330.990516
 30
0.0
 11
1143.702911
 21
1326.30413
 31
0.0
  0
ARC
  5
5C8
100
AcDbEntity
  8
2
  6
CONTINUOUS
 62
     7
100
AcDbCircle
 10
1142.702911
 20
1326.30413
 30
0.0
 40
1.0
100
AcDbArc
 50
-90.0
 51
0.0
  0
LINE
  5
5C9
100
AcDbEntity
  8
2
  6
CONTINUOUS
 62
     7
100
AcDbLine
 10
1129.702911
 20
1330.990516
 30
0.0
 11
1129.702911
 21
1326.30413
 31
0.0
  0
LINE
  5
5CA
100
AcDbEntity
  8
2
  6
CONTINUOUS
 62
     7
100
AcDbLine
 10
1130.702911
 20
1325.30413
 30
0.0
 11
1142.702911
 21
1325.30413
 31
0.0
  0
ARC
  5
5CB
100
AcDbEntity
  8
2
  6
CONTINUOUS
 62
     7
100
AcDbCircle
 10
1130.702911
 20
1326.30413
 30
0.0
 40
1.0
100
AcDbArc
 50
180.0
 51
-90.0
  0
ARC
  5
5CC
100
AcDbEntity
  8
2
  6
CONTINUOUS
 62
     7
100
AcDbCircle
 10
1134.847435
 20
1323.716923
 30
0.0
 40
9.939362
100
AcDbArc
 50
7.449198
 51
27.007116
  0
ARC
  5
5CD
100
AcDbEntity
  8
2
  6
CONTINUOUS
 62
     7
100
AcDbCircle
 10
1138.558387
 20
1323.716923
 30
0.0
 40
9.939362
100
AcDbArc
 50
152.992884
 51
172.550802
  0
LINE
  5
5CE
100
AcDbEntity
  8
2
  6
CONTINUOUS
 62
     7
100
AcDbLine
 10
1144.702911
 20
1325.005532
 30
0.0
 11
1144.702911
 21
1313.294802
 31
0.0
  0
ARC
  5
5CF
100
AcDbEntity
  8
2
  6
CONTINUOUS
 62
     7
100
AcDbCircle
 10
1142.577911
 20
1311.396766
 30
0.0
 40
2.65625
100
AcDbArc
 50
-64.942384
 51
31.273298
  0
ARC
  5
5D0
100
AcDbEntity
  8
2
  6
CONTINUOUS
 62
     7
100
AcDbCircle
 10
1145.702911
 20
1313.294802
 30
0.0
 40
1.0
100
AcDbArc
 50
180.0
 51
-148.726702
  0
LINE
  5
5D1
100
AcDbEntity
  8
2
  6
CONTINUOUS
 62
     7
100
AcDbLine
 10
1136.702911
 20
1308.990516
 30
0.0
 11
1143.702911
 21
1308.990516
 31
0.0
  0
LINE
  5
5D2
100
AcDbEntity
  8
2
  6
CONTINUOUS
 62
     7
100
AcDbLine
 10
1128.702911
 20
1325.005532
 30
0.0
 11
1128.702911
 21
1313.294802
 31
0.0
  0
ARC
  5
5D3
100
AcDbEntity
  8
2
  6
CONTINUOUS
 62
     7
100
AcDbCircle
 10
1130.827911
 20
1311.396766
 30
0.0
 40
2.65625
100
AcDbArc
 50
148.726702
 51
-115.057616
  0
ARC
  5
5D4
100
AcDbEntity
  8
2
  6
CONTINUOUS
 62
     7
100
AcDbCircle
 10
1127.702911
 20
1313.294802
 30
0.0
 40
1.0
100
AcDbArc
 50
-31.273298
 51
0.0
  0
LINE
  5
5D5
100
AcDbEntity
  8
2
  6
CONTINUOUS
 62
     7
100
AcDbLine
 10
1136.702911
 20
1308.990516
 30
0.0
 11
1129.702911
 21
1308.990516
 31
0.0
  0
LINE
  5
5D6
100
AcDbEntity
  8
2
  6
CONTINUOUS
 62
     7
100
AcDbLine
 10
1132.702911
 20
1330.990516
 30
0.0
 11
1132.702911
 21
1326.990516
 31
0.0
  0
LINE
  5
5D7
100
AcDbEntity
  8
2
  6
CONTINUOUS
 62
     7
100
AcDbLine
 10
1132.702911
 20
1326.990516
 30
0.0
 11
1140.702911
 21
1326.990516
 31
0.0
  0
LINE
  5
5D8
100
AcDbEntity
  8
2
  6
CONTINUOUS
 62
     7
100
AcDbLine
 10
1140.702911
 20
1326.990516
 30
0.0
 11
1140.702911
 21
1330.990516
 31
0.0
  0
LINE
  5
5D9
100
AcDbEntity
  8
2
  6
CONTINUOUS
 62
     7
100
AcDbLine
 10
1140.702911
 20
1330.990516
 30
0.0
 11
1132.702911
 21
1330.990516
 31
0.0
  0
CIRCLE
  5
5DA
100
AcDbEntity
  8
2
  6
CONTINUOUS
 62
     7
100
AcDbCircle
 10
1336.702911
 20
1345.990516
 30
0.0
 40
9.0
  0
CIRCLE
  5
5DB
100
AcDbEntity
  8
2
  6
CONTINUOUS
 62
     7
100
AcDbCircle
 10
1336.702911
 20
1345.990516
 30
0.0
 40
6.68
  0
LINE
  5
5DC
100
AcDbEntity
  8
2
  6
CONTINUOUS
 62
     7
100
AcDbLine
 10
1341.202911
 20
1350.490516
 30
0.0
 11
1341.202911
 21
1341.490516
 31
0.0
  0
LINE
  5
5DD
100
AcDbEntity
  8
2
  6
CONTINUOUS
 62
     7
100
AcDbLine
 10
1341.202911
 20
1341.490516
 30
0.0
 11
1332.202911
 21
1341.490516
 31
0.0
  0
LINE
  5
5DE
100
AcDbEntity
  8
2
  6
CONTINUOUS
 62
     7
100
AcDbLine
 10
1332.202911
 20
1341.490516
 30
0.0
 11
1332.202911
 21
1350.490516
 31
0.0
  0
LINE
  5
5DF
100
AcDbEntity
  8
2
  6
CONTINUOUS
 62
     7
100
AcDbLine
 10
1332.202911
 20
1350.490516
 30
0.0
 11
1341.202911
 21
1350.490516
 31
0.0
  0
LINE
  5
5E0
100
AcDbEntity
  8
2
  6
CONTINUOUS
 62
     7
100
AcDbLine
 10
161.702111
 20
1356.840916
 30
0.0
 11
161.702111
 21
1335.140116
 31
0.0
  0
LINE
  5
5E1
100
AcDbEntity
  8
2
  6
CONTINUOUS
 62
     7
100
AcDbLine
 10
136.702911
 20
1371.490516
 30
0.0
 11
136.702911
 21
1320.490516
 31
0.0
  0
LINE
  5
5E2
100
AcDbEntity
  8
2
  6
CONTINUOUS
 62
     7
100
AcDbLine
 10
136.702911
 20
1320.490516
 30
0.0
 11
137.702911
 21
1320.490516
 31
0.0
  0
LINE
  5
5E3
100
AcDbEntity
  8
2
  6
CONTINUOUS
 62
     7
100
AcDbLine
 10
139.702911
 20
1298.490516
 30
0.0
 11
148.702911
 21
1298.490516
 31
0.0
  0
LINE
  5
5E4
100
AcDbEntity
  8
2
  6
CONTINUOUS
 62
     7
100
AcDbLine
 10
150.702911
 20
1300.490516
 30
0.0
 11
150.702911
 21
1345.990516
 31
0.0
  0
LINE
  5
5E5
100
AcDbEntity
  8
2
  6
CONTINUOUS
 62
     7
100
AcDbLine
 10
154.702911
 20
1328.140916
 30
0.0
 11
156.702911
 21
1328.140916
 31
0.0
  0
LINE
  5
5E6
100
AcDbEntity
  8
2
  6
CONTINUOUS
 62
     7
100
AcDbLine
 10
156.702911
 20
1328.140916
 30
0.0
 11
156.702911
 21
1345.990516
 31
0.0
  0
LINE
  5
5E7
100
AcDbEntity
  8
2
  6
CONTINUOUS
 62
     7
100
AcDbLine
 10
156.702911
 20
1330.140116
 30
0.0
 11
161.702911
 21
1335.140116
 31
0.0
  0
LINE
  5
5E8
100
AcDbEntity
  8
2
  6
CONTINUOUS
 62
     7
100
AcDbLine
 10
137.702911
 20
1345.990516
 30
0.0
 11
137.702911
 21
1300.490516
 31
0.0
  0
ARC
  5
5E9
100
AcDbEntity
  8
2
  6
CONTINUOUS
 62
     7
100
AcDbCircle
 10
139.702911
 20
1300.490516
 30
0.0
 40
2.0
100
AcDbArc
 50
180.0
 51
-90.0
  0
ARC
  5
5EA
100
AcDbEntity
  8
2
  6
CONTINUOUS
 62
     7
100
AcDbCircle
 10
148.702911
 20
1300.490516
 30
0.0
 40
2.0
100
AcDbArc
 50
-90.0
 51
0.0
  0
ARC
  5
5EB
100
AcDbEntity
  8
2
  6
CONTINUOUS
 62
     7
100
AcDbCircle
 10
154.702911
 20
1324.140916
 30
0.0
 40
4.0
100
AcDbArc
 50
90.0
 51
180.0
  0
LINE
  5
5EC
100
AcDbEntity
  8
2
  6
CONTINUOUS
 62
     7
100
AcDbLine
 10
136.702911
 20
1371.490516
 30
0.0
 11
137.702911
 21
1371.490516
 31
0.0
  0
ARC
  5
5ED
100
AcDbEntity
  8
2
  6
CONTINUOUS
 62
     7
100
AcDbCircle
 10
139.702911
 20
1391.490516
 30
0.0
 40
2.0
100
AcDbArc
 50
90.0
 51
180.0
  0
LINE
  5
5EE
100
AcDbEntity
  8
2
  6
CONTINUOUS
 62
     7
100
AcDbLine
 10
139.702911
 20
1393.490516
 30
0.0
 11
148.702911
 21
1393.490516
 31
0.0
  0
LINE
  5
5EF
100
AcDbEntity
  8
2
  6
CONTINUOUS
 62
     7
100
AcDbLine
 10
150.702911
 20
1391.490516
 30
0.0
 11
150.702911
 21
1345.990516
 31
0.0
  0
LINE
  5
5F0
100
AcDbEntity
  8
2
  6
CONTINUOUS
 62
     7
100
AcDbLine
 10
154.702911
 20
1363.840116
 30
0.0
 11
156.702911
 21
1363.840116
 31
0.0
  0
LINE
  5
5F1
100
AcDbEntity
  8
2
  6
CONTINUOUS
 62
     7
100
AcDbLine
 10
156.702911
 20
1363.840116
 30
0.0
 11
156.702911
 21
1345.990516
 31
0.0
  0
LINE
  5
5F2
100
AcDbEntity
  8
2
  6
CONTINUOUS
 62
     7
100
AcDbLine
 10
156.702911
 20
1361.840116
 30
0.0
 11
161.702911
 21
1356.840116
 31
0.0
  0
ARC
  5
5F3
100
AcDbEntity
  8
2
  6
CONTINUOUS
 62
     7
100
AcDbCircle
 10
139.702911
 20
1391.490516
 30
0.0
 40
2.0
100
AcDbArc
 50
90.0
 51
180.0
  0
ARC
  5
5F4
100
AcDbEntity
  8
2
  6
CONTINUOUS
 62
     7
100
AcDbCircle
 10
148.702911
 20
1391.490516
 30
0.0
 40
2.0
100
AcDbArc
 50
0.0
 51
90.0
  0
ARC
  5
5F5
100
AcDbEntity
  8
2
  6
CONTINUOUS
 62
     7
100
AcDbCircle
 10
154.702911
 20
1367.840116
 30
0.0
 40
4.0
100
AcDbArc
 50
180.0
 51
-90.0
  0
LINE
  5
5F6
100
AcDbEntity
  8
2
  6
CONTINUOUS
 62
     7
100
AcDbLine
 10
137.702911
 20
1391.490516
 30
0.0
 11
137.702911
 21
1345.990516
 31
0.0
  0
LINE
  5
5F7
100
AcDbEntity
  8
2
  6
CONTINUOUS
 62
     7
100
AcDbLine
 10
738.723733
 20
1329.990516
 30
0.0
 11
738.723733
 21
1326.990516
 31
0.0
  0
LINE
  5
5F8
100
AcDbEntity
  8
2
  6
CONTINUOUS
 62
     7
100
AcDbLine
 10
734.682411
 20
1329.990516
 30
0.0
 11
734.682411
 21
1326.990516
 31
0.0
  0
LINE
  5
5F9
100
AcDbEntity
  8
2
  6
CONTINUOUS
 62
     7
100
AcDbLine
 10
732.702911
 20
1329.990516
 30
0.0
 11
740.702911
 21
1329.990516
 31
0.0
  0
LINE
  5
5FA
100
AcDbEntity
  8
2
  6
CONTINUOUS
 62
     7
100
AcDbLine
 10
737.154254
 20
1330.990516
 30
0.0
 11
736.210746
 21
1329.990516
 31
0.0
  0
LINE
  5
5FB
100
AcDbEntity
  8
2
  6
CONTINUOUS
 62
     7
100
AcDbLine
 10
729.702911
 20
1332.990516
 30
0.0
 11
729.702911
 21
1330.990516
 31
0.0
  0
LINE
  5
5FC
100
AcDbEntity
  8
2
  6
CONTINUOUS
 62
     7
100
AcDbLine
 10
729.702911
 20
1330.990516
 30
0.0
 11
743.702911
 21
1330.990516
 31
0.0
  0
LINE
  5
5FD
100
AcDbEntity
  8
2
  6
CONTINUOUS
 62
     7
100
AcDbLine
 10
743.702911
 20
1330.990516
 30
0.0
 11
743.702911
 21
1332.990516
 31
0.0
  0
LINE
  5
5FE
100
AcDbEntity
  8
2
  6
CONTINUOUS
 62
     7
100
AcDbLine
 10
729.702911
 20
1332.990516
 30
0.0
 11
738.702911
 21
1332.990516
 31
0.0
  0
LINE
  5
5FF
100
AcDbEntity
  8
2
  6
CONTINUOUS
 62
     7
100
AcDbLine
 10
738.702911
 20
1332.990516
 30
0.0
 11
738.702911
 21
1334.463767
 31
0.0
  0
LINE
  5
600
100
AcDbEntity
  8
2
  6
CONTINUOUS
 62
     7
100
AcDbLine
 10
738.702911
 20
1334.463767
 30
0.0
 11
743.702911
 21
1334.463767
 31
0.0
  0
LINE
  5
601
100
AcDbEntity
  8
2
  6
CONTINUOUS
 62
     7
100
AcDbLine
 10
743.702911
 20
1334.463767
 30
0.0
 11
743.702911
 21
1332.990516
 31
0.0
  0
LINE
  5
602
100
AcDbEntity
  8
2
  6
CONTINUOUS
 62
     7
100
AcDbLine
 10
738.702911
 20
1332.990516
 30
0.0
 11
738.702911
 21
1330.990516
 31
0.0
  0
LINE
  5
603
100
AcDbEntity
  8
2
  6
CONTINUOUS
 62
     7
100
AcDbLine
 10
726.702911
 20
1335.140516
 30
0.0
 11
726.702911
 21
1333.490516
 31
0.0
  0
LINE
  5
604
100
AcDbEntity
  8
2
  6
CONTINUOUS
 62
     7
100
AcDbLine
 10
726.702911
 20
1333.490516
 30
0.0
 11
738.702911
 21
1333.490516
 31
0.0
  0
LINE
  5
605
100
AcDbEntity
  8
2
  6
CONTINUOUS
 62
     7
100
AcDbLine
 10
746.702911
 20
1335.140516
 30
0.0
 11
746.702911
 21
1333.490516
 31
0.0
  0
LINE
  5
606
100
AcDbEntity
  8
2
  6
CONTINUOUS
 62
     7
100
AcDbLine
 10
746.702911
 20
1333.490516
 30
0.0
 11
743.702911
 21
1333.490516
 31
0.0
  0
LINE
  5
607
100
AcDbEntity
  8
2
  6
CONTINUOUS
 62
     7
100
AcDbLine
 10
731.115806
 20
1333.490516
 30
0.0
 11
731.115806
 21
1332.990516
 31
0.0
  0
LINE
  5
608
100
AcDbEntity
  8
2
  6
CONTINUOUS
 62
     7
100
AcDbLine
 10
743.702911
 20
1330.990516
 30
0.0
 11
743.702911
 21
1326.30413
 31
0.0
  0
ARC
  5
609
100
AcDbEntity
  8
2
  6
CONTINUOUS
 62
     7
100
AcDbCircle
 10
742.702911
 20
1326.30413
 30
0.0
 40
1.0
100
AcDbArc
 50
-90.0
 51
0.0
  0
LINE
  5
60A
100
AcDbEntity
  8
2
  6
CONTINUOUS
 62
     7
100
AcDbLine
 10
729.702911
 20
1330.990516
 30
0.0
 11
729.702911
 21
1326.30413
 31
0.0
  0
LINE
  5
60B
100
AcDbEntity
  8
2
  6
CONTINUOUS
 62
     7
100
AcDbLine
 10
730.702911
 20
1325.30413
 30
0.0
 11
742.702911
 21
1325.30413
 31
0.0
  0
ARC
  5
60C
100
AcDbEntity
  8
2
  6
CONTINUOUS
 62
     7
100
AcDbCircle
 10
730.702911
 20
1326.30413
 30
0.0
 40
1.0
100
AcDbArc
 50
180.0
 51
-90.0
  0
ARC
  5
60D
100
AcDbEntity
  8
2
  6
CONTINUOUS
 62
     7
100
AcDbCircle
 10
734.847435
 20
1323.716923
 30
0.0
 40
9.939362
100
AcDbArc
 50
7.449198
 51
27.007116
  0
ARC
  5
60E
100
AcDbEntity
  8
2
  6
CONTINUOUS
 62
     7
100
AcDbCircle
 10
738.558387
 20
1323.716923
 30
0.0
 40
9.939362
100
AcDbArc
 50
152.992884
 51
172.550802
  0
LINE
  5
60F
100
AcDbEntity
  8
2
  6
CONTINUOUS
 62
     7
100
AcDbLine
 10
744.702911
 20
1325.005532
 30
0.0
 11
744.702911
 21
1313.294802
 31
0.0
  0
ARC
  5
610
100
AcDbEntity
  8
2
  6
CONTINUOUS
 62
     7
100
AcDbCircle
 10
742.577911
 20
1311.396766
 30
0.0
 40
2.65625
100
AcDbArc
 50
-64.942384
 51
31.273298
  0
ARC
  5
611
100
AcDbEntity
  8
2
  6
CONTINUOUS
 62
     7
100
AcDbCircle
 10
745.702911
 20
1313.294802
 30
0.0
 40
1.0
100
AcDbArc
 50
180.0
 51
-148.726702
  0
LINE
  5
612
100
AcDbEntity
  8
2
  6
CONTINUOUS
 62
     7
100
AcDbLine
 10
736.702911
 20
1308.990516
 30
0.0
 11
743.702911
 21
1308.990516
 31
0.0
  0
LINE
  5
613
100
AcDbEntity
  8
2
  6
CONTINUOUS
 62
     7
100
AcDbLine
 10
728.702911
 20
1325.005532
 30
0.0
 11
728.702911
 21
1313.294802
 31
0.0
  0
ARC
  5
614
100
AcDbEntity
  8
2
  6
CONTINUOUS
 62
     7
100
AcDbCircle
 10
730.827911
 20
1311.396766
 30
0.0
 40
2.65625
100
AcDbArc
 50
148.726702
 51
-115.057616
  0
ARC
  5
615
100
AcDbEntity
  8
2
  6
CONTINUOUS
 62
     7
100
AcDbCircle
 10
727.702911
 20
1313.294802
 30
0.0
 40
1.0
100
AcDbArc
 50
-31.273298
 51
0.0
  0
LINE
  5
616
100
AcDbEntity
  8
2
  6
CONTINUOUS
 62
     7
100
AcDbLine
 10
736.702911
 20
1308.990516
 30
0.0
 11
729.702911
 21
1308.990516
 31
0.0
  0
LINE
  5
617
100
AcDbEntity
  8
2
  6
CONTINUOUS
 62
     7
100
AcDbLine
 10
732.702911
 20
1330.990516
 30
0.0
 11
732.702911
 21
1326.990516
 31
0.0
  0
LINE
  5
618
100
AcDbEntity
  8
2
  6
CONTINUOUS
 62
     7
100
AcDbLine
 10
732.702911
 20
1326.990516
 30
0.0
 11
740.702911
 21
1326.990516
 31
0.0
  0
LINE
  5
619
100
AcDbEntity
  8
2
  6
CONTINUOUS
 62
     7
100
AcDbLine
 10
740.702911
 20
1326.990516
 30
0.0
 11
740.702911
 21
1330.990516
 31
0.0
  0
LINE
  5
61A
100
AcDbEntity
  8
2
  6
CONTINUOUS
 62
     7
100
AcDbLine
 10
740.702911
 20
1330.990516
 30
0.0
 11
732.702911
 21
1330.990516
 31
0.0
  0
LINE
  5
61B
100
AcDbEntity
  8
2
  6
CONTINUOUS
 62
     7
100
AcDbLine
 10
338.723733
 20
1329.990516
 30
0.0
 11
338.723733
 21
1326.990516
 31
0.0
  0
LINE
  5
61C
100
AcDbEntity
  8
2
  6
CONTINUOUS
 62
     7
100
AcDbLine
 10
334.682411
 20
1329.990516
 30
0.0
 11
334.682411
 21
1326.990516
 31
0.0
  0
LINE
  5
61D
100
AcDbEntity
  8
2
  6
CONTINUOUS
 62
     7
100
AcDbLine
 10
332.702911
 20
1329.990516
 30
0.0
 11
340.702911
 21
1329.990516
 31
0.0
  0
LINE
  5
61E
100
AcDbEntity
  8
2
  6
CONTINUOUS
 62
     7
100
AcDbLine
 10
337.154254
 20
1330.990516
 30
0.0
 11
336.210746
 21
1329.990516
 31
0.0
  0
LINE
  5
61F
100
AcDbEntity
  8
2
  6
CONTINUOUS
 62
     7
100
AcDbLine
 10
329.702911
 20
1332.990516
 30
0.0
 11
329.702911
 21
1330.990516
 31
0.0
  0
LINE
  5
620
100
AcDbEntity
  8
2
  6
CONTINUOUS
 62
     7
100
AcDbLine
 10
329.702911
 20
1330.990516
 30
0.0
 11
343.702911
 21
1330.990516
 31
0.0
  0
LINE
  5
621
100
AcDbEntity
  8
2
  6
CONTINUOUS
 62
     7
100
AcDbLine
 10
343.702911
 20
1330.990516
 30
0.0
 11
343.702911
 21
1332.990516
 31
0.0
  0
LINE
  5
622
100
AcDbEntity
  8
2
  6
CONTINUOUS
 62
     7
100
AcDbLine
 10
329.702911
 20
1332.990516
 30
0.0
 11
338.702911
 21
1332.990516
 31
0.0
  0
LINE
  5
623
100
AcDbEntity
  8
2
  6
CONTINUOUS
 62
     7
100
AcDbLine
 10
338.702911
 20
1332.990516
 30
0.0
 11
338.702911
 21
1334.463767
 31
0.0
  0
LINE
  5
624
100
AcDbEntity
  8
2
  6
CONTINUOUS
 62
     7
100
AcDbLine
 10
338.702911
 20
1334.463767
 30
0.0
 11
343.702911
 21
1334.463767
 31
0.0
  0
LINE
  5
625
100
AcDbEntity
  8
2
  6
CONTINUOUS
 62
     7
100
AcDbLine
 10
343.702911
 20
1334.463767
 30
0.0
 11
343.702911
 21
1332.990516
 31
0.0
  0
LINE
  5
626
100
AcDbEntity
  8
2
  6
CONTINUOUS
 62
     7
100
AcDbLine
 10
338.702911
 20
1332.990516
 30
0.0
 11
338.702911
 21
1330.990516
 31
0.0
  0
LINE
  5
627
100
AcDbEntity
  8
2
  6
CONTINUOUS
 62
     7
100
AcDbLine
 10
326.702911
 20
1335.140516
 30
0.0
 11
326.702911
 21
1333.490516
 31
0.0
  0
LINE
  5
628
100
AcDbEntity
  8
2
  6
CONTINUOUS
 62
     7
100
AcDbLine
 10
326.702911
 20
1333.490516
 30
0.0
 11
338.702911
 21
1333.490516
 31
0.0
  0
LINE
  5
629
100
AcDbEntity
  8
2
  6
CONTINUOUS
 62
     7
100
AcDbLine
 10
346.702911
 20
1335.140516
 30
0.0
 11
346.702911
 21
1333.490516
 31
0.0
  0
LINE
  5
62A
100
AcDbEntity
  8
2
  6
CONTINUOUS
 62
     7
100
AcDbLine
 10
346.702911
 20
1333.490516
 30
0.0
 11
343.702911
 21
1333.490516
 31
0.0
  0
LINE
  5
62B
100
AcDbEntity
  8
2
  6
CONTINUOUS
 62
     7
100
AcDbLine
 10
331.115806
 20
1333.490516
 30
0.0
 11
331.115806
 21
1332.990516
 31
0.0
  0
LINE
  5
62C
100
AcDbEntity
  8
2
  6
CONTINUOUS
 62
     7
100
AcDbLine
 10
343.702911
 20
1330.990516
 30
0.0
 11
343.702911
 21
1326.30413
 31
0.0
  0
ARC
  5
62D
100
AcDbEntity
  8
2
  6
CONTINUOUS
 62
     7
100
AcDbCircle
 10
342.702911
 20
1326.30413
 30
0.0
 40
1.0
100
AcDbArc
 50
-90.0
 51
0.0
  0
LINE
  5
62E
100
AcDbEntity
  8
2
  6
CONTINUOUS
 62
     7
100
AcDbLine
 10
329.702911
 20
1330.990516
 30
0.0
 11
329.702911
 21
1326.30413
 31
0.0
  0
LINE
  5
62F
100
AcDbEntity
  8
2
  6
CONTINUOUS
 62
     7
100
AcDbLine
 10
330.702911
 20
1325.30413
 30
0.0
 11
342.702911
 21
1325.30413
 31
0.0
  0
ARC
  5
630
100
AcDbEntity
  8
2
  6
CONTINUOUS
 62
     7
100
AcDbCircle
 10
330.702911
 20
1326.30413
 30
0.0
 40
1.0
100
AcDbArc
 50
180.0
 51
-90.0
  0
ARC
  5
631
100
AcDbEntity
  8
2
  6
CONTINUOUS
 62
     7
100
AcDbCircle
 10
334.847435
 20
1323.716923
 30
0.0
 40
9.939362
100
AcDbArc
 50
7.449198
 51
27.007116
  0
ARC
  5
632
100
AcDbEntity
  8
2
  6
CONTINUOUS
 62
     7
100
AcDbCircle
 10
338.558387
 20
1323.716923
 30
0.0
 40
9.939362
100
AcDbArc
 50
152.992884
 51
172.550802
  0
LINE
  5
633
100
AcDbEntity
  8
2
  6
CONTINUOUS
 62
     7
100
AcDbLine
 10
344.702911
 20
1325.005532
 30
0.0
 11
344.702911
 21
1313.294802
 31
0.0
  0
ARC
  5
634
100
AcDbEntity
  8
2
  6
CONTINUOUS
 62
     7
100
AcDbCircle
 10
342.577911
 20
1311.396766
 30
0.0
 40
2.65625
100
AcDbArc
 50
-64.942384
 51
31.273298
  0
ARC
  5
635
100
AcDbEntity
  8
2
  6
CONTINUOUS
 62
     7
100
AcDbCircle
 10
345.702911
 20
1313.294802
 30
0.0
 40
1.0
100
AcDbArc
 50
180.0
 51
-148.726702
  0
LINE
  5
636
100
AcDbEntity
  8
2
  6
CONTINUOUS
 62
     7
100
AcDbLine
 10
336.702911
 20
1308.990516
 30
0.0
 11
343.702911
 21
1308.990516
 31
0.0
  0
LINE
  5
637
100
AcDbEntity
  8
2
  6
CONTINUOUS
 62
     7
100
AcDbLine
 10
328.702911
 20
1325.005532
 30
0.0
 11
328.702911
 21
1313.294802
 31
0.0
  0
ARC
  5
638
100
AcDbEntity
  8
2
  6
CONTINUOUS
 62
     7
100
AcDbCircle
 10
330.827911
 20
1311.396766
 30
0.0
 40
2.65625
100
AcDbArc
 50
148.726702
 51
-115.057616
  0
ARC
  5
639
100
AcDbEntity
  8
2
  6
CONTINUOUS
 62
     7
100
AcDbCircle
 10
327.702911
 20
1313.294802
 30
0.0
 40
1.0
100
AcDbArc
 50
-31.273298
 51
0.0
  0
LINE
  5
63A
100
AcDbEntity
  8
2
  6
CONTINUOUS
 62
     7
100
AcDbLine
 10
336.702911
 20
1308.990516
 30
0.0
 11
329.702911
 21
1308.990516
 31
0.0
  0
LINE
  5
63B
100
AcDbEntity
  8
2
  6
CONTINUOUS
 62
     7
100
AcDbLine
 10
332.702911
 20
1330.990516
 30
0.0
 11
332.702911
 21
1326.990516
 31
0.0
  0
LINE
  5
63C
100
AcDbEntity
  8
2
  6
CONTINUOUS
 62
     7
100
AcDbLine
 10
332.702911
 20
1326.990516
 30
0.0
 11
340.702911
 21
1326.990516
 31
0.0
  0
LINE
  5
63D
100
AcDbEntity
  8
2
  6
CONTINUOUS
 62
     7
100
AcDbLine
 10
340.702911
 20
1326.990516
 30
0.0
 11
340.702911
 21
1330.990516
 31
0.0
  0
LINE
  5
63E
100
AcDbEntity
  8
2
  6
CONTINUOUS
 62
     7
100
AcDbLine
 10
340.702911
 20
1330.990516
 30
0.0
 11
332.702911
 21
1330.990516
 31
0.0
  0
LINE
  5
63F
100
AcDbEntity
  8
2
  6
CONTINUOUS
 62
     7
100
AcDbLine
 10
161.702111
 20
1335.140516
 30
0.0
 11
1711.702911
 21
1335.140516
 31
0.0
  0
LINE
  5
640
100
AcDbEntity
  8
2
  6
CONTINUOUS
 62
     7
100
AcDbLine
 10
161.702111
 20
1356.840516
 30
0.0
 11
1711.702911
 21
1356.840516
 31
0.0
  0
LINE
  5
641
100
AcDbEntity
  8
1
  6
CENTER
 62
     7
100
AcDbLine
 10
1749.558508
 20
1345.990516
 30
0.0
 11
130.642525
 21
1345.990516
 31
0.0
  0
ENDSEC
  0
SECTION
  2
OBJECTS
  0
DICTIONARY
  5
19
100
AcDbDictionary
  3
ACAD_GROUP
350
1A
  3
ACAD_MLINESTYLE
350
1B
  0
DICTIONARY
  5
1A
102
{ACAD_REACTORS
330
19
102
}
100
AcDbDictionary
  0
DICTIONARY
  5
1B
102
{ACAD_REACTORS
330
19
102
}
100
AcDbDictionary
  3
STANDARD
350
1C
  0
MLINESTYLE
  5
1C
102
{ACAD_REACTORS
330
1B
102
}
100
AcDbMlineStyle
  2
STANDARD
 70
     0
  3

 62
     0
 51
90.0
 52
90.0
 71
     2
 49
0.5
 62
   256
  6
BYLAYER
 49
-0.5
 62
   256
  6
BYLAYER
  0
ENDSEC
  0
EOF
