  0
SECTION
  2
HEADER
  9
$ACADVER
  1
AC1014
  9
$ACADMAINTVER
 70
     0
  9
$DWGCODEPAGE
  3
DOS932
  9
$INSBASE
 10
0.0
 20
0.0
 30
0.0
  9
$EXTMIN
 10
0.0
 20
0.0
 30
0.0
  9
$EXTMAX
 10
5940.0
 20
4200.0
 30
0.0
  9
$LIMMIN
 10
0.0
 20
0.0
  9
$LIMMAX
 10
5940.0
 20
4200.0
  9
$ORTHOMODE
 70
     0
  9
$REGENMODE
 70
     1
  9
$FILLMODE
 70
     1
  9
$QTEXTMODE
 70
     0
  9
$MIRRTEXT
 70
     1
  9
$DRAGMODE
 70
     2
  9
$LTSCALE
 40
5.0
  9
$OSMODE
 70
     0
  9
$ATTMODE
 70
     1
  9
$TEXTSIZE
 40
68.0
  9
$TRACEWID
 40
0.05
  9
$TEXTSTYLE
  7
STANDARD
  9
$CLAYER
  8
0
  9
$CELTYPE
  6
CONTINUOUS
  9
$CECOLOR
 62
   256
  9
$CELTSCALE
 40
1.0
  9
$DELOBJ
 70
     1
  9
$DISPSILH
 70
     0
  9
$DIMSCALE
 40
20.0
  9
$DIMASZ
 40
2.0
  9
$DIMEXO
 40
2.0
  9
$DIMDLI
 40
10.0
  9
$DIMRND
 40
0.0
  9
$DIMDLE
 40
0.0
  9
$DIMEXE
 40
2.0
  9
$DIMTP
 40
0.0
  9
$DIMTM
 40
0.0
  9
$DIMTXT
 40
4.0
  9
$DIMCEN
 40
0.09
  9
$DIMTSZ
 40
0.0
  9
$DIMTOL
 70
     0
  9
$DIMLIM
 70
     0
  9
$DIMTIH
 70
     0
  9
$DIMTOH
 70
     0
  9
$DIMSE1
 70
     0
  9
$DIMSE2
 70
     0
  9
$DIMTAD
 70
     3
  9
$DIMZIN
 70
     0
  9
$DIMBLK
  1

  9
$DIMASO
 70
     1
  9
$DIMSHO
 70
     1
  9
$DIMPOST
  1

  9
$DIMAPOST
  1

  9
$DIMALT
 70
     0
  9
$DIMALTD
 70
     2
  9
$DIMALTF
 40
25.4
  9
$DIMLFAC
 40
1.0
  9
$DIMTOFL
 70
     1
  9
$DIMTVP
 40
0.7
  9
$DIMTIX
 70
     0
  9
$DIMSOXD
 70
     0
  9
$DIMSAH
 70
     0
  9
$DIMBLK1
  1

  9
$DIMBLK2
  1

  9
$DIMSTYLE
  2
STANDARD
  9
$DIMCLRD
 70
     0
  9
$DIMCLRE
 70
     0
  9
$DIMCLRT
 70
     0
  9
$DIMTFAC
 40
0.5
  9
$DIMGAP
 40
0.0
  9
$DIMJUST
 70
     0
  9
$DIMSD1
 70
     0
  9
$DIMSD2
 70
     0
  9
$DIMTOLJ
 70
     1
  9
$DIMTZIN
 70
     0
  9
$DIMALTZ
 70
     0
  9
$DIMALTTZ
 70
     0
  9
$DIMFIT
 70
     3
  9
$DIMUPT
 70
     0
  9
$DIMUNIT
 70
     2
  9
$DIMDEC
 70
     2
  9
$DIMTDEC
 70
     4
  9
$DIMALTU
 70
     2
  9
$DIMALTTD
 70
     2
  9
$DIMTXSTY
  7
STANDARD
  9
$DIMAUNIT
 70
     0
  9
$LUNITS
 70
     2
  9
$LUPREC
 70
     4
  9
$SKETCHINC
 40
0.1
  9
$FILLETRAD
 40
0.0
  9
$AUNITS
 70
     0
  9
$AUPREC
 70
     0
  9
$MENU
  1
acad
  9
$ELEVATION
 40
0.0
  9
$PELEVATION
 40
0.0
  9
$THICKNESS
 40
0.0
  9
$LIMCHECK
 70
     0
  9
$BLIPMODE
 70
     1
  9
$CHAMFERA
 40
0.0
  9
$CHAMFERB
 40
0.0
  9
$CHAMFERC
 40
0.0
  9
$CHAMFERD
 40
0.0
  9
$SKPOLY
 70
     0
  9
$TDCREATE
 40
2453951.937800926
  9
$TDUPDATE
 40
2453951.937800926
  9
$TDINDWG
 40
0.0000000000
  9
$TDUSRTIMER
 40
0.0000000000
  9
$USRTIMER
 70
     1
  9
$ANGBASE
 50
0.0
  9
$ANGDIR
 70
     0
  9
$PDMODE
 70
     0
  9
$PDSIZE
 40
0.0
  9
$PLINEWID
 40
0.0
  9
$COORDS
 70
     0
  9
$SPLFRAME
 70
     0
  9
$SPLINETYPE
 70
     6
  9
$SPLINESEGS
 70
     8
  9
$ATTDIA
 70
     0
  9
$ATTREQ
 70
     1
  9
$HANDLING
 70
     1
  9
$HANDSEED
  5
4E4
  9
$SURFTAB1
 70
     6
  9
$SURFTAB2
 70
     6
  9
$SURFTYPE
 70
     6
  9
$SURFU
 70
     6
  9
$SURFV
 70
     6
  9
$UCSNAME
  2

  9
$UCSORG
 10
0.0
 20
0.0
 30
0.0
  9
$UCSXDIR
 10
1.0
 20
0.0
 30
0.0
  9
$UCSYDIR
 10
0.0
 20
1.0
 30
0.0
  9
$PUCSNAME
  2

  9
$PUCSORG
 10
0.0
 20
0.0
 30
0.0
  9
$PUCSXDIR
 10
1.0
 20
0.0
 30
0.0
  9
$PUCSYDIR
 10
0.0
 20
1.0
 30
0.0
  9
$USERI1
 70
     0
  9
$USERI2
 70
     0
  9
$USERI3
 70
     0
  9
$USERI4
 70
     0
  9
$USERI5
 70
     0
  9
$USERR1
 40
0.0
  9
$USERR2
 40
0.0
  9
$USERR3
 40
0.0
  9
$USERR4
 40
0.0
  9
$USERR5
 40
0.0
  9
$WORLDVIEW
 70
     1
  9
$SHADEDGE
 70
     3
  9
$SHADEDIF
 70
    70
  9
$TILEMODE
 70
     1
  9
$MAXACTVP
 70
    16
  9
$PINSBASE
 10
0.0
 20
0.0
 30
0.0
  9
$PLIMCHECK
 70
     0
  9
$PEXTMIN
 10
0.0
 20
0.0
 30
0.0
  9
$PEXTMAX
 10
297.0
 20
210.0
 30
0.0
  9
$PLIMMIN
 10
0.0
 20
0.0
  9
$PLIMMAX
 10
297.0
 20
210.0
  9
$UNITMODE
 70
     0
  9
$VISRETAIN
 70
     0
  9
$PLINEGEN
 70
     1
  9
$PSLTSCALE
 70
     0
  9
$TREEDEPTH
 70
  3020
  9
$PICKSTYLE
 70
     1
  9
$CMLSTYLE
  2
STANDARD
  9
$CMLJUST
 70
     0
  9
$CMLSCALE
 40
1.0
  9
$PROXYGRAPHICS
 70
     0
  9
$MEASUREMENT
 70
     0
  0
ENDSEC
  0
SECTION
  2
CLASSES
  0
CLASS
  1
LWPOLYLINE
  2
AcDbPolyline
  3
"AutoCAD"
 90
        0
280
     0
281
     1
  0
CLASS
  1
IMAGE
  2
AcDbRasterImage
  3
ISM
 90
      127
280
     0
281
     1
  0
CLASS
  1
OLE2FRAME
  2
AcDbOle2Frame
  3
""
 90
        0
280
     0
281
     1
  0
CLASS
  1
HATCH
  2
AcDbHatch
  3
"ACAD_SEDONA"
 90
        0
280
     0
281
     1
  0
CLASS
  1
DICTIONARYVAR
  2
AcDbDictionaryVar
  3
"AutoCAD"
 90
        0
280
     0
281
     0
  0
CLASS
  1
RASTERVARIABLES
  2
AcDbRasterVariables
  3
ISM
 90
        0
280
     0
281
     0
  0
CLASS
  1
IMAGEDEF
  2
AcDbRasterImageDef
  3
ISM
 90
        0
280
     0
281
     0
  0
CLASS
  1
IMAGEDEF_REACTOR
  2
AcDbRasterImageDefReactor
  3
ISM
 90
        1
280
     0
281
     0
  0
CLASS
  1
IDBUFFER
  2
AcDbIdBuffer
  3
"Acad"
 90
        0
280
     0
281
     0
  0
CLASS
  1
SPATIAL_FILTER
  2
AcDbSpatialFilter
  3
"Acad"
 90
        0
280
     0
281
     0
  0
CLASS
  1
XRECORD
  2
AcDbXrecord
  3
"<Built In>"
 90
        0
280
     0
281
     0
  0
CLASS
  1
SORTENTSTABLE
  2
AcDbSortentsTable
  3
"AutoCAD"
 90
        0
280
     0
281
     0
  0
CLASS
  1
LAYER_INDEX
  2
AcDbLayerIndex
  3
"Acad"
 90
        0
280
     0
281
     0
  0
CLASS
  1
SPATIAL_INDEX
  2
AcDbSpatialIndex
  3
"Acad"
 90
        0
280
     0
281
     0
  0
CLASS
  1
OBJECT_PTR
  2
CAseDLPNTableRecord
  3
"ASE-LPNTableRecord"
 90
        1
280
     0
281
     0
  0
CLASS
  1
LAYOUT
  2
AcDbLayout
  3
"AutoCAD 2000"
 90
        1
280
     0
281
     0
  0
CLASS
  1
PLOTSETTINGS
  2
AcDbPlotSettings
  3
"AutoCAD 2000"
 90
        1
280
     0
281
     0
  0
CLASS
  1
ACDBDICTIONARYWDFLT
  2
AcDbDictionaryWithDefault
  3
"AutoCAD 2000"
 90
        1
280
     0
281
     0
  0
CLASS
  1
ACDBPLACEHOLDER
  2
AcDbPlaceHolder
  3
"AutoCAD 2000"
 90
        1
280
     0
281
     0
  0
CLASS
  1
VBA_PROJECT
  2
AcDbVbaProject
  3
"acadvba"
 90
        1
280
     0
281
     0
  0
CLASS
  1
WIPEOUT
  2
AcDbWipeout
  3
WipeOut|AutoCAD Express Tool|expresstools@autodesk.com
 90
      127
280
     0
281
     1
  0
CLASS
  1
WIPEOUTVARIABLES
  2
AcDbWipeoutVariables
  3
WipeOut|AutoCAD Express Tool|expresstools@autodesk.com
 90
        0
280
     0
281
     0
  0
CLASS
  1
RTEXT
  2
RText
  3
RText|AutoCAD Express Tool|expresstools@autodesk.com
 90
        0
280
     0
281
     1
  0
CLASS
  1
ARCALIGNEDTEXT
  2
AcDbArcAlignedText
  3
ATEXT|AutoCAD Express Tool|expresstools@autodesk.com
 90
        0
280
     0
281
     1
  0
ENDSEC
  0
SECTION
  2
TABLES
  0
TABLE
  2
VPORT
  5
7
100
AcDbSymbolTable
 70
     1
  0
VPORT
  5
15
100
AcDbSymbolTableRecord
100
AcDbViewportTableRecord
  2
*ACTIVE
 70
     0
 10
0.0
 20
0.0
 11
1.0
 21
1.0
 12
6.591288
 22
4.579184
 13
0.0
 23
0.0
 14
1.0
 24
1.0
 15
0.0
 25
0.0
 16
0.0
 26
0.0
 36
1.0
 17
0.0
 27
0.0
 37
0.0
 40
9.158369
 41
0.688564
 42
50.0
 43
0.0
 44
0.0
 50
0.0
 51
0.0
 71
     0
 72
   100
 73
     1
 74
     1
 75
     0
 76
     0
 77
     0
 78
     0
  0
ENDTAB
  0
TABLE
  2
LTYPE
  5
4
100
AcDbSymbolTable
 70
     9
  0
LTYPE
  5
11
100
AcDbSymbolTableRecord
100
AcDbLinetypeTableRecord
  2
BYBLOCK
 70
    64
  3

 72
    65
 73
     0
 40
0.0
  0
LTYPE
  5
12
100
AcDbSymbolTableRecord
100
AcDbLinetypeTableRecord
  2
BYLAYER
 70
    64
  3

 72
    65
 73
     0
 40
0.0
  0
LTYPE
  5
13
100
AcDbSymbolTableRecord
100
AcDbLinetypeTableRecord
  2
CONTINUOUS
 70
    64
  3
Solid line
 72
    65
 73
     0
 40
0.0
  0
LTYPE
  5
1E
100
AcDbSymbolTableRecord
100
AcDbLinetypeTableRecord
  2
HIDDEN
 70
    64
  3
- - - - - - - - 
 72
    65
 73
     2
 40
12.6
 49
8.4
 74
     0
 49
-4.2
 74
     0
  0
LTYPE
  5
1F
100
AcDbSymbolTableRecord
100
AcDbLinetypeTableRecord
  2
DOT
 70
    64
  3
･ ･ ･ ･ ･ ･ ･ ･ 
 72
    65
 73
     2
 40
8.0
 49
6.0
 74
     0
 49
-2.0
 74
     0
  0
LTYPE
  5
20
100
AcDbSymbolTableRecord
100
AcDbLinetypeTableRecord
  2
CENTER
 70
    64
  3
- ･ - ･ - ･ - ･ 
 72
    65
 73
     4
 40
50.5
 49
30.0
 74
     0
 49
-9.0
 74
     0
 49
2.5
 74
     0
 49
-9.0
 74
     0
  0
LTYPE
  5
21
100
AcDbSymbolTableRecord
100
AcDbLinetypeTableRecord
  2
PHANTOM
 70
    64
  3
- ･･ - ･･ - ･･ - ･･ 
 72
    65
 73
     6
 40
58.0
 49
30.0
 74
     0
 49
-9.0
 74
     0
 49
2.5
 74
     0
 49
-5.0
 74
     0
 49
2.5
 74
     0
 49
-9.0
 74
     0
  0
LTYPE
  5
22
100
AcDbSymbolTableRecord
100
AcDbLinetypeTableRecord
  2
ACAD_ISO06W100
 70
    64
  3
____ ... ____ ... ____
 72
    65
 73
     8
 40
37.5
 49
24.0
 74
     0
 49
-3.0
 74
     0
 49
0.5
 74
     0
 49
-3.0
 74
     0
 49
0.5
 74
     0
 49
-3.0
 74
     0
 49
0.5
 74
     0
 49
-3.0
 74
     0
  0
LTYPE
  5
23
100
AcDbSymbolTableRecord
100
AcDbLinetypeTableRecord
  2
ACAD_ISO14W100
 70
    64
  3
__ . . . __ . . . __ . . . 
 72
    65
 73
     8
 40
25.5
 49
12.0
 74
     0
 49
-3.0
 74
     0
 49
0.5
 74
     0
 49
-3.0
 74
     0
 49
0.5
 74
     0
 49
-3.0
 74
     0
 49
0.5
 74
     0
 49
-3.0
 74
     0
  0
ENDTAB
  0
TABLE
  2
LAYER
  5
2
100
AcDbSymbolTable
 70
    23
  0
LAYER
  5
14
100
AcDbSymbolTableRecord
100
AcDbLayerTableRecord
  2
0
 70
     0
 62
     7
  6
CONTINUOUS
  0
LAYER
  5
24
100
AcDbSymbolTableRecord
100
AcDbLayerTableRecord
  2
1
 70
     0
 62
     7
  6
CONTINUOUS
  0
LAYER
  5
25
100
AcDbSymbolTableRecord
100
AcDbLayerTableRecord
  2
2
 70
     0
 62
     7
  6
CONTINUOUS
  0
LAYER
  5
26
100
AcDbSymbolTableRecord
100
AcDbLayerTableRecord
  2
3
 70
     0
 62
   214
  6
CONTINUOUS
  0
LAYER
  5
27
100
AcDbSymbolTableRecord
100
AcDbLayerTableRecord
  2
4
 70
     0
 62
    54
  6
CONTINUOUS
  0
LAYER
  5
28
100
AcDbSymbolTableRecord
100
AcDbLayerTableRecord
  2
5
 70
     0
 62
    94
  6
CONTINUOUS
  0
LAYER
  5
29
100
AcDbSymbolTableRecord
100
AcDbLayerTableRecord
  2
6
 70
     0
 62
    14
  6
CONTINUOUS
  0
LAYER
  5
2A
100
AcDbSymbolTableRecord
100
AcDbLayerTableRecord
  2
7
 70
     0
 62
     4
  6
CONTINUOUS
  0
LAYER
  5
2B
100
AcDbSymbolTableRecord
100
AcDbLayerTableRecord
  2
8
 70
     0
 62
     6
  6
CONTINUOUS
  0
LAYER
  5
2C
100
AcDbSymbolTableRecord
100
AcDbLayerTableRecord
  2
9
 70
     0
 62
     2
  6
CONTINUOUS
  0
LAYER
  5
2D
100
AcDbSymbolTableRecord
100
AcDbLayerTableRecord
  2
10
 70
     0
 62
     3
  6
CONTINUOUS
  0
LAYER
  5
2E
100
AcDbSymbolTableRecord
100
AcDbLayerTableRecord
  2
11
 70
     0
 62
   251
  6
CONTINUOUS
  0
LAYER
  5
2F
100
AcDbSymbolTableRecord
100
AcDbLayerTableRecord
  2
12
 70
     0
 62
   136
  6
CONTINUOUS
  0
LAYER
  5
30
100
AcDbSymbolTableRecord
100
AcDbLayerTableRecord
  2
13
 70
     0
 62
   216
  6
CONTINUOUS
  0
LAYER
  5
31
100
AcDbSymbolTableRecord
100
AcDbLayerTableRecord
  2
14
 70
     0
 62
    56
  6
CONTINUOUS
  0
LAYER
  5
32
100
AcDbSymbolTableRecord
100
AcDbLayerTableRecord
  2
15
 70
     0
 62
    96
  6
CONTINUOUS
  0
LAYER
  5
33
100
AcDbSymbolTableRecord
100
AcDbLayerTableRecord
  2
16
 70
     0
 62
    16
  6
CONTINUOUS
  0
LAYER
  5
34
100
AcDbSymbolTableRecord
100
AcDbLayerTableRecord
  2
17
 70
     0
 62
   132
  6
CONTINUOUS
  0
LAYER
  5
35
100
AcDbSymbolTableRecord
100
AcDbLayerTableRecord
  2
18
 70
     0
 62
   212
  6
CONTINUOUS
  0
LAYER
  5
36
100
AcDbSymbolTableRecord
100
AcDbLayerTableRecord
  2
19
 70
     0
 62
    52
  6
CONTINUOUS
  0
LAYER
  5
37
100
AcDbSymbolTableRecord
100
AcDbLayerTableRecord
  2
20
 70
     0
 62
   250
  6
CONTINUOUS
  0
LAYER
  5
38
100
AcDbSymbolTableRecord
100
AcDbLayerTableRecord
  2
21
 70
     0
 62
     7
  6
CONTINUOUS
  0
LAYER
  5
39
100
AcDbSymbolTableRecord
100
AcDbLayerTableRecord
  2
22
 70
     0
 62
     7
  6
CONTINUOUS
  0
ENDTAB
  0
TABLE
  2
STYLE
  5
3
100
AcDbSymbolTable
 70
     2
  0
STYLE
  5
17
100
AcDbSymbolTableRecord
100
AcDbTextStyleTableRecord
  2
STANDARD
 70
     0
 40
0.0
 41
1.0
 50
0.0
 71
     0
 42
0.0
  3
txt
  4
bigfont
  0
STYLE
  5
1D
100
AcDbSymbolTableRecord
100
AcDbTextStyleTableRecord
  2
T_STANDARD
 70
    68
 40
10.0
 41
1.0
 50
0.0
 71
     0
 42
10.0
  3
txt
  4
bigfont
  0
ENDTAB
  0
TABLE
  2
VIEW
  5
5
100
AcDbSymbolTable
 70
     0
  0
ENDTAB
  0
TABLE
  2
UCS
  5
6
100
AcDbSymbolTable
 70
     0
  0
ENDTAB
  0
TABLE
  2
APPID
  5
8
100
AcDbSymbolTable
 70
     1
  0
APPID
  5
16
100
AcDbSymbolTableRecord
100
AcDbRegAppTableRecord
  2
ACAD
 70
     0
  0
ENDTAB
  0
TABLE
  2
DIMSTYLE
  5
9
100
AcDbSymbolTable
 70
     1
  0
DIMSTYLE
105
18
100
AcDbSymbolTableRecord
100
AcDbDimStyleTableRecord
  2
STANDARD
 70
     0
  3

  4

  5

  6

  7

 40
1.0
 41
0.18
 42
0.0625
 43
0.38
 44
0.18
 45
0.0
 46
0.0
 47
0.0
 48
0.0
 71
     0
 72
     0
 73
     1
 74
     1
 75
     0
 76
     0
 77
     0
 78
     0
140
0.18
141
0.09
142
0.0
143
25.4
144
1.0
145
0.0
146
1.0
147
0.09
170
     0
171
     2
172
     0
173
     0
174
     0
175
     0
176
     0
177
     0
178
     0
270
     2
271
     4
272
     4
273
     2
274
     2
275
     0
280
     0
281
     0
282
     0
283
     1
284
     0
285
     0
286
     0
287
     0
288
     0
340
17
  0
ENDTAB
  0
TABLE
  2
BLOCK_RECORD
  5
1
100
AcDbSymbolTable
 70
     8
  0
BLOCK_RECORD
  5
A
100
AcDbSymbolTableRecord
100
AcDbBlockTableRecord
  2
*MODEL_SPACE
  0
BLOCK_RECORD
  5
B
100
AcDbSymbolTableRecord
100
AcDbBlockTableRecord
  2
*PAPER_SPACE
  0
BLOCK_RECORD
  5
3A
100
AcDbSymbolTableRecord
100
AcDbBlockTableRecord
  2
*G0
  0
BLOCK_RECORD
  5
3C8
100
AcDbSymbolTableRecord
100
AcDbBlockTableRecord
  2
*G1
  0
BLOCK_RECORD
  5
3D4
100
AcDbSymbolTableRecord
100
AcDbBlockTableRecord
  2
*G2
  0
BLOCK_RECORD
  5
3E0
100
AcDbSymbolTableRecord
100
AcDbBlockTableRecord
  2
*G3
  0
BLOCK_RECORD
  5
3EC
100
AcDbSymbolTableRecord
100
AcDbBlockTableRecord
  2
*G4
  0
BLOCK_RECORD
  5
3F8
100
AcDbSymbolTableRecord
100
AcDbBlockTableRecord
  2
*G5
  0
BLOCK_RECORD
  5
404
100
AcDbSymbolTableRecord
100
AcDbBlockTableRecord
  2
*G6
  0
BLOCK_RECORD
  5
410
100
AcDbSymbolTableRecord
100
AcDbBlockTableRecord
  2
*G7
  0
ENDTAB
  0
ENDSEC
  0
SECTION
  2
BLOCKS
  0
BLOCK
  5
D
100
AcDbEntity
  8
0
100
AcDbBlockBegin
  2
*MODEL_SPACE
 70
     0
 10
0.0
 20
0.0
 30
0.0
  3
*MODEL_SPACE
  1

  0
ENDBLK
  5
E
100
AcDbEntity
  8
0
100
AcDbBlockEnd
  0
BLOCK
  5
F
100
AcDbEntity
 67
     1
  8
0
100
AcDbBlockBegin
  2
*PAPER_SPACE
 70
     0
 10
0.0
 20
0.0
 30
0.0
  3
*PAPER_SPACE
  1

  0
ENDBLK
  5
10
100
AcDbEntity
 67
     1
  8
0
100
AcDbBlockEnd
  0
BLOCK
  5
3B
100
AcDbEntity
  8
0
  6
CONTINUOUS
 62
     7
100
AcDbBlockBegin
  2
*G0
 70
     0
 10
0.0
 20
0.0
 30
0.0
  3
*G0
  1

  0
ENDBLK
  5
3C
100
AcDbEntity
  8
0
100
AcDbBlockEnd
  0
BLOCK
  5
3C9
100
AcDbEntity
  8
2
  6
CONTINUOUS
 62
     7
100
AcDbBlockBegin
  2
*G1
 70
     0
 10
0.0
 20
0.0
 30
0.0
  3
*G1
  1

  0
LINE
  5
3CA
100
AcDbEntity
  8
2
  6
CONTINUOUS
 62
     7
100
AcDbLine
 10
2523.173773
 20
441.947035
 30
0.0
 11
2723.173773
 21
441.947035
 31
0.0
  0
LINE
  5
3CB
100
AcDbEntity
  8
2
  6
CONTINUOUS
 62
     7
100
AcDbLine
 10
2523.173773
 20
417.947035
 30
0.0
 11
2523.173773
 21
511.180635
 31
0.0
  0
LINE
  5
3CC
100
AcDbEntity
  8
2
  6
CONTINUOUS
 62
     7
100
AcDbLine
 10
2723.173773
 20
417.947035
 30
0.0
 11
2723.173773
 21
607.739835
 31
0.0
  0
LINE
  5
3CD
100
AcDbEntity
  8
2
  6
CONTINUOUS
 62
     7
100
AcDbLine
 10
2523.173773
 20
441.947035
 30
0.0
 11
2552.151547
 21
449.711606
 31
0.0
  0
LINE
  5
3CE
100
AcDbEntity
  8
2
  6
CONTINUOUS
 62
     7
100
AcDbLine
 10
2523.173773
 20
441.947035
 30
0.0
 11
2552.151547
 21
434.182463
 31
0.0
  0
LINE
  5
3CF
100
AcDbEntity
  8
2
  6
CONTINUOUS
 62
     7
100
AcDbLine
 10
2723.173773
 20
441.947035
 30
0.0
 11
2694.195998
 21
434.182463
 31
0.0
  0
LINE
  5
3D0
100
AcDbEntity
  8
2
  6
CONTINUOUS
 62
     7
100
AcDbLine
 10
2723.173773
 20
441.947035
 30
0.0
 11
2694.195998
 21
449.711606
 31
0.0
  0
TEXT
  5
3D1
100
AcDbEntity
  8
2
  6
CONTINUOUS
 62
     7
100
AcDbText
 10
2578.173773
 20
441.947035
 30
0.0
 40
60.0
  1
200
 41
0.5
 51
15.0
 11
2578.173773
 21
441.947035
 31
0.0
100
AcDbText
 73
     1
  0
ENDBLK
  5
3D2
100
AcDbEntity
  8
0
100
AcDbBlockEnd
  0
BLOCK
  5
3D5
100
AcDbEntity
  8
2
  6
CONTINUOUS
 62
     7
100
AcDbBlockBegin
  2
*G2
 70
     0
 10
0.0
 20
0.0
 30
0.0
  3
*G2
  1

  0
LINE
  5
3D6
100
AcDbEntity
  8
2
  6
CONTINUOUS
 62
     7
100
AcDbLine
 10
2523.173773
 20
441.947035
 30
0.0
 11
2123.173773
 21
441.947035
 31
0.0
  0
LINE
  5
3D7
100
AcDbEntity
  8
2
  6
CONTINUOUS
 62
     7
100
AcDbLine
 10
2523.173773
 20
417.947035
 30
0.0
 11
2523.173773
 21
511.180635
 31
0.0
  0
LINE
  5
3D8
100
AcDbEntity
  8
2
  6
CONTINUOUS
 62
     7
100
AcDbLine
 10
2123.173773
 20
417.947035
 30
0.0
 11
2123.173773
 21
511.180635
 31
0.0
  0
LINE
  5
3D9
100
AcDbEntity
  8
2
  6
CONTINUOUS
 62
     7
100
AcDbLine
 10
2523.173773
 20
441.947035
 30
0.0
 11
2494.195998
 21
434.182463
 31
0.0
  0
LINE
  5
3DA
100
AcDbEntity
  8
2
  6
CONTINUOUS
 62
     7
100
AcDbLine
 10
2523.173773
 20
441.947035
 30
0.0
 11
2494.195998
 21
449.711606
 31
0.0
  0
LINE
  5
3DB
100
AcDbEntity
  8
2
  6
CONTINUOUS
 62
     7
100
AcDbLine
 10
2123.173773
 20
441.947035
 30
0.0
 11
2152.151547
 21
449.711606
 31
0.0
  0
LINE
  5
3DC
100
AcDbEntity
  8
2
  6
CONTINUOUS
 62
     7
100
AcDbLine
 10
2123.173773
 20
441.947035
 30
0.0
 11
2152.151547
 21
434.182463
 31
0.0
  0
TEXT
  5
3DD
100
AcDbEntity
  8
2
  6
CONTINUOUS
 62
     7
100
AcDbText
 10
2278.173773
 20
441.947035
 30
0.0
 40
60.0
  1
400
 41
0.5
 51
15.0
 11
2278.173773
 21
441.947035
 31
0.0
100
AcDbText
 73
     1
  0
ENDBLK
  5
3DE
100
AcDbEntity
  8
0
100
AcDbBlockEnd
  0
BLOCK
  5
3E1
100
AcDbEntity
  8
2
  6
CONTINUOUS
 62
     7
100
AcDbBlockBegin
  2
*G3
 70
     0
 10
0.0
 20
0.0
 30
0.0
  3
*G3
  1

  0
LINE
  5
3E2
100
AcDbEntity
  8
2
  6
CONTINUOUS
 62
     7
100
AcDbLine
 10
2123.173773
 20
441.947035
 30
0.0
 11
1723.173773
 21
441.947035
 31
0.0
  0
LINE
  5
3E3
100
AcDbEntity
  8
2
  6
CONTINUOUS
 62
     7
100
AcDbLine
 10
2123.173773
 20
417.947035
 30
0.0
 11
2123.173773
 21
511.180635
 31
0.0
  0
LINE
  5
3E4
100
AcDbEntity
  8
2
  6
CONTINUOUS
 62
     7
100
AcDbLine
 10
1723.173773
 20
417.947035
 30
0.0
 11
1723.173773
 21
511.180635
 31
0.0
  0
LINE
  5
3E5
100
AcDbEntity
  8
2
  6
CONTINUOUS
 62
     7
100
AcDbLine
 10
2123.173773
 20
441.947035
 30
0.0
 11
2094.195998
 21
434.182463
 31
0.0
  0
LINE
  5
3E6
100
AcDbEntity
  8
2
  6
CONTINUOUS
 62
     7
100
AcDbLine
 10
2123.173773
 20
441.947035
 30
0.0
 11
2094.195998
 21
449.711606
 31
0.0
  0
LINE
  5
3E7
100
AcDbEntity
  8
2
  6
CONTINUOUS
 62
     7
100
AcDbLine
 10
1723.173773
 20
441.947035
 30
0.0
 11
1752.151547
 21
449.711606
 31
0.0
  0
LINE
  5
3E8
100
AcDbEntity
  8
2
  6
CONTINUOUS
 62
     7
100
AcDbLine
 10
1723.173773
 20
441.947035
 30
0.0
 11
1752.151547
 21
434.182463
 31
0.0
  0
TEXT
  5
3E9
100
AcDbEntity
  8
2
  6
CONTINUOUS
 62
     7
100
AcDbText
 10
1878.173773
 20
441.947035
 30
0.0
 40
60.0
  1
400
 41
0.5
 51
15.0
 11
1878.173773
 21
441.947035
 31
0.0
100
AcDbText
 73
     1
  0
ENDBLK
  5
3EA
100
AcDbEntity
  8
0
100
AcDbBlockEnd
  0
BLOCK
  5
3ED
100
AcDbEntity
  8
2
  6
CONTINUOUS
 62
     7
100
AcDbBlockBegin
  2
*G4
 70
     0
 10
0.0
 20
0.0
 30
0.0
  3
*G4
  1

  0
LINE
  5
3EE
100
AcDbEntity
  8
2
  6
CONTINUOUS
 62
     7
100
AcDbLine
 10
1723.173773
 20
441.947035
 30
0.0
 11
1523.173773
 21
441.947035
 31
0.0
  0
LINE
  5
3EF
100
AcDbEntity
  8
2
  6
CONTINUOUS
 62
     7
100
AcDbLine
 10
1723.173773
 20
417.947035
 30
0.0
 11
1723.173773
 21
511.180635
 31
0.0
  0
LINE
  5
3F0
100
AcDbEntity
  8
2
  6
CONTINUOUS
 62
     7
100
AcDbLine
 10
1523.173773
 20
417.947035
 30
0.0
 11
1523.173773
 21
607.739835
 31
0.0
  0
LINE
  5
3F1
100
AcDbEntity
  8
2
  6
CONTINUOUS
 62
     7
100
AcDbLine
 10
1723.173773
 20
441.947035
 30
0.0
 11
1694.195998
 21
434.182463
 31
0.0
  0
LINE
  5
3F2
100
AcDbEntity
  8
2
  6
CONTINUOUS
 62
     7
100
AcDbLine
 10
1723.173773
 20
441.947035
 30
0.0
 11
1694.195998
 21
449.711606
 31
0.0
  0
LINE
  5
3F3
100
AcDbEntity
  8
2
  6
CONTINUOUS
 62
     7
100
AcDbLine
 10
1523.173773
 20
441.947035
 30
0.0
 11
1552.151547
 21
449.711606
 31
0.0
  0
LINE
  5
3F4
100
AcDbEntity
  8
2
  6
CONTINUOUS
 62
     7
100
AcDbLine
 10
1523.173773
 20
441.947035
 30
0.0
 11
1552.151547
 21
434.182463
 31
0.0
  0
TEXT
  5
3F5
100
AcDbEntity
  8
2
  6
CONTINUOUS
 62
     7
100
AcDbText
 10
1578.173773
 20
441.947035
 30
0.0
 40
60.0
  1
200
 41
0.5
 51
15.0
 11
1578.173773
 21
441.947035
 31
0.0
100
AcDbText
 73
     1
  0
ENDBLK
  5
3F6
100
AcDbEntity
  8
0
100
AcDbBlockEnd
  0
BLOCK
  5
3F9
100
AcDbEntity
  8
2
  6
CONTINUOUS
 62
     7
100
AcDbBlockBegin
  2
*G5
 70
     0
 10
0.0
 20
0.0
 30
0.0
  3
*G5
  1

  0
LINE
  5
3FA
100
AcDbEntity
  8
2
  6
CONTINUOUS
 62
     7
100
AcDbLine
 10
1523.173773
 20
308.261435
 30
0.0
 11
2723.173773
 21
308.261435
 31
0.0
  0
LINE
  5
3FB
100
AcDbEntity
  8
2
  6
CONTINUOUS
 62
     7
100
AcDbLine
 10
1523.173773
 20
284.261435
 30
0.0
 11
1523.173773
 21
375.659035
 31
0.0
  0
LINE
  5
3FC
100
AcDbEntity
  8
2
  6
CONTINUOUS
 62
     7
100
AcDbLine
 10
2723.173773
 20
284.261435
 30
0.0
 11
2723.173773
 21
375.659035
 31
0.0
  0
LINE
  5
3FD
100
AcDbEntity
  8
2
  6
CONTINUOUS
 62
     7
100
AcDbLine
 10
1523.173773
 20
308.261435
 30
0.0
 11
1552.151547
 21
316.026006
 31
0.0
  0
LINE
  5
3FE
100
AcDbEntity
  8
2
  6
CONTINUOUS
 62
     7
100
AcDbLine
 10
1523.173773
 20
308.261435
 30
0.0
 11
1552.151547
 21
300.496863
 31
0.0
  0
LINE
  5
3FF
100
AcDbEntity
  8
2
  6
CONTINUOUS
 62
     7
100
AcDbLine
 10
2723.173773
 20
308.261435
 30
0.0
 11
2694.195998
 21
300.496863
 31
0.0
  0
LINE
  5
400
100
AcDbEntity
  8
2
  6
CONTINUOUS
 62
     7
100
AcDbLine
 10
2723.173773
 20
308.261435
 30
0.0
 11
2694.195998
 21
316.026006
 31
0.0
  0
TEXT
  5
401
100
AcDbEntity
  8
2
  6
CONTINUOUS
 62
     7
100
AcDbText
 10
2063.173773
 20
308.261435
 30
0.0
 40
60.0
  1
1200
 41
0.5
 51
15.0
 11
2063.173773
 21
308.261435
 31
0.0
100
AcDbText
 73
     1
  0
ENDBLK
  5
402
100
AcDbEntity
  8
0
100
AcDbBlockEnd
  0
BLOCK
  5
405
100
AcDbEntity
  8
2
  6
CONTINUOUS
 62
     7
100
AcDbBlockBegin
  2
*G6
 70
     0
 10
0.0
 20
0.0
 30
0.0
  3
*G6
  1

  0
LINE
  5
406
100
AcDbEntity
  8
2
  6
CONTINUOUS
 62
     7
100
AcDbLine
 10
1523.173773
 20
837.320635
 30
0.0
 11
1923.173773
 21
837.320635
 31
0.0
  0
LINE
  5
407
100
AcDbEntity
  8
2
  6
CONTINUOUS
 62
     7
100
AcDbLine
 10
1523.173773
 20
861.320635
 30
0.0
 11
1523.173773
 21
754.739835
 31
0.0
  0
LINE
  5
408
100
AcDbEntity
  8
2
  6
CONTINUOUS
 62
     7
100
AcDbLine
 10
1923.173773
 20
861.320635
 30
0.0
 11
1923.173773
 21
779.796635
 31
0.0
  0
LINE
  5
409
100
AcDbEntity
  8
2
  6
CONTINUOUS
 62
     7
100
AcDbLine
 10
1523.173773
 20
837.320635
 30
0.0
 11
1552.151547
 21
845.085206
 31
0.0
  0
LINE
  5
40A
100
AcDbEntity
  8
2
  6
CONTINUOUS
 62
     7
100
AcDbLine
 10
1523.173773
 20
837.320635
 30
0.0
 11
1552.151547
 21
829.556063
 31
0.0
  0
LINE
  5
40B
100
AcDbEntity
  8
2
  6
CONTINUOUS
 62
     7
100
AcDbLine
 10
1923.173773
 20
837.320635
 30
0.0
 11
1894.195998
 21
829.556063
 31
0.0
  0
LINE
  5
40C
100
AcDbEntity
  8
2
  6
CONTINUOUS
 62
     7
100
AcDbLine
 10
1923.173773
 20
837.320635
 30
0.0
 11
1894.195998
 21
845.085206
 31
0.0
  0
TEXT
  5
40D
100
AcDbEntity
  8
2
  6
CONTINUOUS
 62
     7
100
AcDbText
 10
1678.173773
 20
837.320635
 30
0.0
 40
60.0
  1
400
 41
0.5
 51
15.0
 11
1678.173773
 21
837.320635
 31
0.0
100
AcDbText
 73
     1
  0
ENDBLK
  5
40E
100
AcDbEntity
  8
0
100
AcDbBlockEnd
  0
BLOCK
  5
411
100
AcDbEntity
  8
2
  6
CONTINUOUS
 62
     7
100
AcDbBlockBegin
  2
*G7
 70
     0
 10
0.0
 20
0.0
 30
0.0
  3
*G7
  1

  0
LINE
  5
412
100
AcDbEntity
  8
2
  6
CONTINUOUS
 62
     7
100
AcDbLine
 10
1526.173773
 20
763.788337
 30
0.0
 11
1523.173773
 21
763.788337
 31
0.0
  0
LINE
  5
413
100
AcDbEntity
  8
2
  6
CONTINUOUS
 62
     7
100
AcDbLine
 10
1526.173773
 20
787.788337
 30
0.0
 11
1526.173773
 21
740.090235
 31
0.0
  0
LINE
  5
414
100
AcDbEntity
  8
2
  6
CONTINUOUS
 62
     7
100
AcDbLine
 10
1523.173773
 20
787.788337
 30
0.0
 11
1523.173773
 21
754.739835
 31
0.0
  0
LINE
  5
415
100
AcDbEntity
  8
2
  6
CONTINUOUS
 62
     7
100
AcDbLine
 10
1526.173773
 20
763.788337
 30
0.0
 11
1497.195998
 21
756.023765
 31
0.0
  0
LINE
  5
416
100
AcDbEntity
  8
2
  6
CONTINUOUS
 62
     7
100
AcDbLine
 10
1526.173773
 20
763.788337
 30
0.0
 11
1497.195998
 21
771.552908
 31
0.0
  0
LINE
  5
417
100
AcDbEntity
  8
2
  6
CONTINUOUS
 62
     7
100
AcDbLine
 10
1523.173773
 20
763.788337
 30
0.0
 11
1552.151547
 21
771.552908
 31
0.0
  0
LINE
  5
418
100
AcDbEntity
  8
2
  6
CONTINUOUS
 62
     7
100
AcDbLine
 10
1523.173773
 20
763.788337
 30
0.0
 11
1552.151547
 21
756.023765
 31
0.0
  0
TEXT
  5
419
100
AcDbEntity
  8
2
  6
CONTINUOUS
 62
     7
100
AcDbText
 10
1509.673773
 20
763.788337
 30
0.0
 40
60.0
  1
3
 41
0.5
 51
15.0
 11
1509.673773
 21
763.788337
 31
0.0
100
AcDbText
 73
     1
  0
ENDBLK
  5
41A
100
AcDbEntity
  8
0
100
AcDbBlockEnd
  0
ENDSEC
  0
SECTION
  2
ENTITIES
  0
INSERT
  5
3D
100
AcDbEntity
  8
0
  6
CONTINUOUS
 62
     7
100
AcDbBlockReference
  2
*G0
 10
0.0
 20
0.0
 30
0.0
  0
LINE
  5
3E
100
AcDbEntity
  8
2
  6
CONTINUOUS
 62
     7
100
AcDbLine
 10
1523.173773
 20
706.739835
 30
0.0
 11
1523.173773
 21
655.739835
 31
0.0
  0
LINE
  5
3F
100
AcDbEntity
  8
2
  6
CENTER
 62
     7
100
AcDbLine
 10
1516.343373
 20
681.239835
 30
0.0
 11
1823.173773
 21
681.239835
 31
0.0
  0
LINE
  5
40
100
AcDbEntity
  8
2
  6
CONTINUOUS
 62
     7
100
AcDbLine
 10
1523.173773
 20
655.739835
 30
0.0
 11
1524.173773
 21
655.739835
 31
0.0
  0
LINE
  5
41
100
AcDbEntity
  8
2
  6
CONTINUOUS
 62
     7
100
AcDbLine
 10
1523.173773
 20
706.739835
 30
0.0
 11
1524.173773
 21
706.739835
 31
0.0
  0
LINE
  5
42
100
AcDbEntity
  8
2
  6
CONTINUOUS
 62
     7
100
AcDbLine
 10
1526.173773
 20
728.739835
 30
0.0
 11
1535.173773
 21
728.739835
 31
0.0
  0
LINE
  5
43
100
AcDbEntity
  8
2
  6
CONTINUOUS
 62
     7
100
AcDbLine
 10
1526.173773
 20
633.739835
 30
0.0
 11
1535.173773
 21
633.739835
 31
0.0
  0
LINE
  5
44
100
AcDbEntity
  8
2
  6
CONTINUOUS
 62
     7
100
AcDbLine
 10
1541.173773
 20
699.090235
 30
0.0
 11
1543.173773
 21
699.090235
 31
0.0
  0
LINE
  5
45
100
AcDbEntity
  8
2
  6
CONTINUOUS
 62
     7
100
AcDbLine
 10
1543.173773
 20
697.089435
 30
0.0
 11
1548.173773
 21
692.089435
 31
0.0
  0
LINE
  5
46
100
AcDbEntity
  8
2
  6
CONTINUOUS
 62
     7
100
AcDbLine
 10
1537.173773
 20
635.739835
 30
0.0
 11
1537.173773
 21
681.239835
 31
0.0
  0
LINE
  5
47
100
AcDbEntity
  8
2
  6
CONTINUOUS
 62
     7
100
AcDbLine
 10
1541.173773
 20
663.390235
 30
0.0
 11
1543.173773
 21
663.390235
 31
0.0
  0
LINE
  5
48
100
AcDbEntity
  8
2
  6
CONTINUOUS
 62
     7
100
AcDbLine
 10
1543.173773
 20
663.390235
 30
0.0
 11
1543.173773
 21
681.239835
 31
0.0
  0
LINE
  5
49
100
AcDbEntity
  8
2
  6
CONTINUOUS
 62
     7
100
AcDbLine
 10
1543.173773
 20
665.389435
 30
0.0
 11
1548.173773
 21
670.389435
 31
0.0
  0
LINE
  5
4A
100
AcDbEntity
  8
2
  6
CONTINUOUS
 62
     7
100
AcDbLine
 10
1548.173773
 20
681.239835
 30
0.0
 11
1548.173773
 21
670.389435
 31
0.0
  0
LINE
  5
4B
100
AcDbEntity
  8
2
  6
CONTINUOUS
 62
     7
100
AcDbLine
 10
1524.173773
 20
681.239835
 30
0.0
 11
1524.173773
 21
635.739835
 31
0.0
  0
LINE
  5
4C
100
AcDbEntity
  8
2
  6
CENTER
 62
     7
100
AcDbLine
 10
1923.173773
 20
731.796635
 30
0.0
 11
1923.173773
 21
676.797435
 31
0.0
  0
LINE
  5
4D
100
AcDbEntity
  8
2
  6
CONTINUOUS
 62
     7
100
AcDbLine
 10
1548.173773
 20
670.389435
 30
0.0
 11
1714.173773
 21
670.389435
 31
0.0
  0
LINE
  5
4E
100
AcDbEntity
  8
2
  6
CONTINUOUS
 62
     7
100
AcDbLine
 10
2723.173773
 20
706.739835
 30
0.0
 11
2723.173773
 21
655.739835
 31
0.0
  0
LINE
  5
4F
100
AcDbEntity
  8
2
  6
CENTER
 62
     7
100
AcDbLine
 10
2747.820973
 20
681.239835
 30
0.0
 11
1823.173773
 21
681.239835
 31
0.0
  0
LINE
  5
50
100
AcDbEntity
  8
2
  6
CONTINUOUS
 62
     7
100
AcDbLine
 10
2723.173773
 20
655.739835
 30
0.0
 11
2722.173773
 21
655.739835
 31
0.0
  0
LINE
  5
51
100
AcDbEntity
  8
2
  6
CONTINUOUS
 62
     7
100
AcDbLine
 10
2723.173773
 20
706.739835
 30
0.0
 11
2722.173773
 21
706.739835
 31
0.0
  0
LINE
  5
52
100
AcDbEntity
  8
2
  6
CONTINUOUS
 62
     7
100
AcDbLine
 10
2720.173773
 20
728.739835
 30
0.0
 11
2711.173773
 21
728.739835
 31
0.0
  0
LINE
  5
53
100
AcDbEntity
  8
2
  6
CONTINUOUS
 62
     7
100
AcDbLine
 10
2720.173773
 20
633.739835
 30
0.0
 11
2711.173773
 21
633.739835
 31
0.0
  0
LINE
  5
54
100
AcDbEntity
  8
2
  6
CONTINUOUS
 62
     7
100
AcDbLine
 10
2705.173773
 20
699.090235
 30
0.0
 11
2703.173773
 21
699.090235
 31
0.0
  0
LINE
  5
55
100
AcDbEntity
  8
2
  6
CONTINUOUS
 62
     7
100
AcDbLine
 10
2703.173773
 20
697.090235
 30
0.0
 11
2698.173773
 21
692.089435
 31
0.0
  0
LINE
  5
56
100
AcDbEntity
  8
2
  6
CONTINUOUS
 62
     7
100
AcDbLine
 10
2709.173773
 20
635.739835
 30
0.0
 11
2709.173773
 21
681.239835
 31
0.0
  0
LINE
  5
57
100
AcDbEntity
  8
2
  6
CONTINUOUS
 62
     7
100
AcDbLine
 10
2705.173773
 20
663.390235
 30
0.0
 11
2703.173773
 21
663.390235
 31
0.0
  0
LINE
  5
58
100
AcDbEntity
  8
2
  6
CONTINUOUS
 62
     7
100
AcDbLine
 10
2703.173773
 20
663.390235
 30
0.0
 11
2703.173773
 21
681.239835
 31
0.0
  0
LINE
  5
59
100
AcDbEntity
  8
2
  6
CONTINUOUS
 62
     7
100
AcDbLine
 10
2703.173773
 20
665.390235
 30
0.0
 11
2698.173773
 21
670.390235
 31
0.0
  0
LINE
  5
5A
100
AcDbEntity
  8
2
  6
CONTINUOUS
 62
     7
100
AcDbLine
 10
2698.173773
 20
681.239835
 30
0.0
 11
2698.173773
 21
670.389435
 31
0.0
  0
LINE
  5
5B
100
AcDbEntity
  8
2
  6
CONTINUOUS
 62
     7
100
AcDbLine
 10
2722.173773
 20
681.239835
 30
0.0
 11
2722.173773
 21
635.739835
 31
0.0
  0
LINE
  5
5C
100
AcDbEntity
  8
2
  6
CONTINUOUS
 62
     7
100
AcDbLine
 10
1732.173773
 20
670.389435
 30
0.0
 11
1923.173773
 21
670.389435
 31
0.0
  0
LINE
  5
5D
100
AcDbEntity
  8
2
  6
CONTINUOUS
 62
     7
100
AcDbLine
 10
2514.173773
 20
670.389435
 30
0.0
 11
2514.173773
 21
662.390235
 31
0.0
  0
LINE
  5
5E
100
AcDbEntity
  8
2
  6
CONTINUOUS
 62
     7
100
AcDbLine
 10
2514.173773
 20
662.390235
 30
0.0
 11
2523.173773
 21
662.390235
 31
0.0
  0
LINE
  5
5F
100
AcDbEntity
  8
2
  6
CONTINUOUS
 62
     7
100
AcDbLine
 10
2514.826573
 20
655.389435
 30
0.0
 11
2514.643373
 21
662.389435
 31
0.0
  0
LINE
  5
60
100
AcDbEntity
  8
2
  6
CONTINUOUS
 62
     7
100
AcDbLine
 10
2515.681773
 20
655.389435
 30
0.0
 11
2515.539373
 21
660.838235
 31
0.0
  0
LINE
  5
61
100
AcDbEntity
  8
2
  6
CONTINUOUS
 62
     7
100
AcDbLine
 10
2514.643373
 20
662.390235
 30
0.0
 11
2515.539373
 21
660.838235
 31
0.0
  0
LINE
  5
62
100
AcDbEntity
  8
2
  6
CONTINUOUS
 62
     7
100
AcDbLine
 10
2514.684173
 20
660.838235
 30
0.0
 11
2523.173773
 21
660.838235
 31
0.0
  0
LINE
  5
63
100
AcDbEntity
  8
2
  6
CONTINUOUS
 62
     7
100
AcDbLine
 10
2531.663373
 20
660.838235
 30
0.0
 11
2523.173773
 21
660.838235
 31
0.0
  0
LINE
  5
64
100
AcDbEntity
  8
2
  6
CONTINUOUS
 62
     7
100
AcDbLine
 10
2532.173773
 20
670.389435
 30
0.0
 11
2532.173773
 21
662.390235
 31
0.0
  0
LINE
  5
65
100
AcDbEntity
  8
2
  6
CONTINUOUS
 62
     7
100
AcDbLine
 10
2532.173773
 20
662.390235
 30
0.0
 11
2523.173773
 21
662.390235
 31
0.0
  0
LINE
  5
66
100
AcDbEntity
  8
2
  6
CONTINUOUS
 62
     7
100
AcDbLine
 10
2531.520973
 20
655.389435
 30
0.0
 11
2531.704173
 21
662.390235
 31
0.0
  0
LINE
  5
67
100
AcDbEntity
  8
2
  6
CONTINUOUS
 62
     7
100
AcDbLine
 10
2530.665773
 20
655.390235
 30
0.0
 11
2530.808173
 21
660.838235
 31
0.0
  0
LINE
  5
68
100
AcDbEntity
  8
2
  6
CONTINUOUS
 62
     7
100
AcDbLine
 10
2531.704173
 20
662.389435
 30
0.0
 11
2530.808173
 21
660.838235
 31
0.0
  0
LINE
  5
69
100
AcDbEntity
  8
2
  6
CONTINUOUS
 62
     7
100
AcDbLine
 10
2532.173773
 20
667.389435
 30
0.0
 11
2535.173773
 21
670.389435
 31
0.0
  0
LINE
  5
6A
100
AcDbEntity
  8
2
  6
CONTINUOUS
 62
     7
100
AcDbLine
 10
2514.173773
 20
667.390235
 30
0.0
 11
2511.173773
 21
670.390235
 31
0.0
  0
LINE
  5
6B
100
AcDbEntity
  8
2
  6
CENTER
 62
     7
100
AcDbLine
 10
2523.173773
 20
706.739835
 30
0.0
 11
2523.173773
 21
655.739835
 31
0.0
  0
LINE
  5
6C
100
AcDbEntity
  8
2
  6
CENTER
 62
     7
100
AcDbLine
 10
2506.548173
 20
627.390235
 30
0.0
 11
2536.892173
 21
627.390235
 31
0.0
  0
LINE
  5
6D
100
AcDbEntity
  8
2
  6
CENTER
 62
     7
100
AcDbLine
 10
2523.173773
 20
659.542235
 30
0.0
 11
2523.173773
 21
559.180635
 31
0.0
  0
LINE
  5
6E
100
AcDbEntity
  8
2
  6
CONTINUOUS
 62
     7
100
AcDbLine
 10
2512.673773
 20
655.390235
 30
0.0
 11
2533.673773
 21
655.390235
 31
0.0
  0
LINE
  5
6F
100
AcDbEntity
  8
2
  6
CONTINUOUS
 62
     7
100
AcDbLine
 10
2512.673773
 20
605.390235
 30
0.0
 11
2514.673773
 21
605.390235
 31
0.0
  0
LINE
  5
70
100
AcDbEntity
  8
2
  6
CONTINUOUS
 62
     7
100
AcDbLine
 10
2512.673773
 20
655.390235
 30
0.0
 11
2512.673773
 21
605.390235
 31
0.0
  0
LINE
  5
71
100
AcDbEntity
  8
2
  6
CONTINUOUS
 62
     7
100
AcDbLine
 10
2533.673773
 20
655.390235
 30
0.0
 11
2533.673773
 21
605.390235
 31
0.0
  0
LINE
  5
72
100
AcDbEntity
  8
2
  6
CONTINUOUS
 62
     7
100
AcDbLine
 10
2531.673773
 20
605.390235
 30
0.0
 11
2533.673773
 21
605.390235
 31
0.0
  0
LINE
  5
73
100
AcDbEntity
  8
2
  6
CONTINUOUS
 62
     7
100
AcDbLine
 10
2512.673773
 20
629.390235
 30
0.0
 11
2516.465773
 21
629.390235
 31
0.0
  0
LINE
  5
74
100
AcDbEntity
  8
2
  6
CONTINUOUS
 62
     7
100
AcDbLine
 10
2516.673773
 20
642.390235
 30
0.0
 11
2529.673773
 21
642.390235
 31
0.0
  0
LINE
  5
75
100
AcDbEntity
  8
2
  6
CONTINUOUS
 62
     7
100
AcDbLine
 10
2522.173773
 20
654.890235
 30
0.0
 11
2522.173773
 21
643.390235
 31
0.0
  0
LINE
  5
76
100
AcDbEntity
  8
2
  6
CONTINUOUS
 62
     7
100
AcDbLine
 10
2524.173773
 20
654.890235
 30
0.0
 11
2524.173773
 21
643.390235
 31
0.0
  0
LINE
  5
77
100
AcDbEntity
  8
2
  6
CONTINUOUS
 62
     7
100
AcDbLine
 10
2529.673773
 20
642.390235
 30
0.0
 11
2529.673773
 21
637.890235
 31
0.0
  0
LINE
  5
78
100
AcDbEntity
  8
2
  6
CONTINUOUS
 62
     7
100
AcDbLine
 10
2522.173773
 20
643.390235
 30
0.0
 11
2524.173773
 21
643.390235
 31
0.0
  0
LINE
  5
79
100
AcDbEntity
  8
2
  6
CONTINUOUS
 62
     7
100
AcDbLine
 10
2516.673773
 20
642.389435
 30
0.0
 11
2522.173773
 21
643.389435
 31
0.0
  0
LINE
  5
7A
100
AcDbEntity
  8
2
  6
CONTINUOUS
 62
     7
100
AcDbLine
 10
2524.173773
 20
643.390235
 30
0.0
 11
2529.673773
 21
642.390235
 31
0.0
  0
LINE
  5
7B
100
AcDbEntity
  8
2
  6
CONTINUOUS
 62
     7
100
AcDbLine
 10
2513.173773
 20
654.890235
 30
0.0
 11
2513.173773
 21
629.390235
 31
0.0
  0
LINE
  5
7C
100
AcDbEntity
  8
2
  6
CONTINUOUS
 62
     7
100
AcDbLine
 10
2513.173773
 20
620.390235
 30
0.0
 11
2513.173773
 21
605.890235
 31
0.0
  0
LINE
  5
7D
100
AcDbEntity
  8
2
  6
CONTINUOUS
 62
     7
100
AcDbLine
 10
2533.173773
 20
625.390235
 30
0.0
 11
2533.173773
 21
605.890235
 31
0.0
  0
LINE
  5
7E
100
AcDbEntity
  8
2
  6
CONTINUOUS
 62
     7
100
AcDbLine
 10
2533.173773
 20
654.890235
 30
0.0
 11
2533.173773
 21
629.390235
 31
0.0
  0
LINE
  5
7F
100
AcDbEntity
  8
2
  6
CONTINUOUS
 62
     7
100
AcDbLine
 10
2522.173773
 20
654.890235
 30
0.0
 11
2524.173773
 21
654.890235
 31
0.0
  0
LINE
  5
80
100
AcDbEntity
  8
2
  6
CONTINUOUS
 62
     7
100
AcDbLine
 10
2512.673773
 20
605.890235
 30
0.0
 11
2513.173773
 21
605.890235
 31
0.0
  0
LINE
  5
81
100
AcDbEntity
  8
2
  6
CONTINUOUS
 62
     7
100
AcDbLine
 10
2513.173773
 20
605.889435
 30
0.0
 11
2514.673773
 21
605.389435
 31
0.0
  0
LINE
  5
82
100
AcDbEntity
  8
2
  6
CONTINUOUS
 62
     7
100
AcDbLine
 10
2512.673773
 20
654.890235
 30
0.0
 11
2513.173773
 21
654.890235
 31
0.0
  0
LINE
  5
83
100
AcDbEntity
  8
2
  6
CONTINUOUS
 62
     7
100
AcDbLine
 10
2533.173773
 20
654.890235
 30
0.0
 11
2533.673773
 21
654.890235
 31
0.0
  0
LINE
  5
84
100
AcDbEntity
  8
2
  6
CONTINUOUS
 62
     7
100
AcDbLine
 10
2533.173773
 20
605.890235
 30
0.0
 11
2533.673773
 21
605.890235
 31
0.0
  0
LINE
  5
85
100
AcDbEntity
  8
2
  6
CONTINUOUS
 62
     7
100
AcDbLine
 10
2531.673773
 20
605.390235
 30
0.0
 11
2533.173773
 21
605.890235
 31
0.0
  0
LINE
  5
86
100
AcDbEntity
  8
2
  6
CONTINUOUS
 62
     7
100
AcDbLine
 10
2525.173773
 20
637.890235
 30
0.0
 11
2525.173773
 21
634.390235
 31
0.0
  0
LINE
  5
87
100
AcDbEntity
  8
2
  6
CONTINUOUS
 62
     7
100
AcDbLine
 10
2523.173773
 20
634.390235
 30
0.0
 11
2525.173773
 21
634.390235
 31
0.0
  0
LINE
  5
88
100
AcDbEntity
  8
2
  6
CONTINUOUS
 62
     7
100
AcDbLine
 10
2523.173773
 20
565.390235
 30
0.0
 11
2529.173773
 21
568.854235
 31
0.0
  0
LINE
  5
89
100
AcDbEntity
  8
2
  6
CONTINUOUS
 62
     7
100
AcDbLine
 10
2529.173773
 20
568.854235
 30
0.0
 11
2531.673773
 21
605.390235
 31
0.0
  0
LINE
  5
8A
100
AcDbEntity
  8
2
  6
CONTINUOUS
 62
     7
100
AcDbLine
 10
2517.173773
 20
568.854235
 30
0.0
 11
2514.673773
 21
605.390235
 31
0.0
  0
LINE
  5
8B
100
AcDbEntity
  8
2
  6
CONTINUOUS
 62
     7
100
AcDbLine
 10
2523.173773
 20
565.389435
 30
0.0
 11
2517.173773
 21
568.854235
 31
0.0
  0
LINE
  5
8C
100
AcDbEntity
  8
2
  6
CONTINUOUS
 62
     7
100
AcDbLine
 10
2517.036173
 20
610.390235
 30
0.0
 11
2523.173773
 21
610.390235
 31
0.0
  0
LINE
  5
8D
100
AcDbEntity
  8
2
  6
CONTINUOUS
 62
     7
100
AcDbLine
 10
2517.036173
 20
610.389435
 30
0.0
 11
2516.129773
 21
609.483035
 31
0.0
  0
LINE
  5
8E
100
AcDbEntity
  8
2
  6
CONTINUOUS
 62
     7
100
AcDbLine
 10
2529.311373
 20
610.390235
 30
0.0
 11
2523.173773
 21
610.390235
 31
0.0
  0
LINE
  5
8F
100
AcDbEntity
  8
2
  6
CONTINUOUS
 62
     7
100
AcDbLine
 10
2529.311373
 20
610.390235
 30
0.0
 11
2530.217773
 21
609.483035
 31
0.0
  0
LINE
  5
90
100
AcDbEntity
  8
2
  6
CONTINUOUS
 62
     7
100
AcDbLine
 10
2521.173773
 20
628.890235
 30
0.0
 11
2521.173773
 21
625.890235
 31
0.0
  0
LINE
  5
91
100
AcDbEntity
  8
2
  6
CONTINUOUS
 62
     7
100
AcDbLine
 10
2525.173773
 20
628.890235
 30
0.0
 11
2525.173773
 21
625.890235
 31
0.0
  0
LINE
  5
92
100
AcDbEntity
  8
2
  6
CONTINUOUS
 62
     7
100
AcDbLine
 10
2521.152973
 20
630.889435
 30
0.0
 11
2519.132173
 21
627.389435
 31
0.0
  0
LINE
  5
93
100
AcDbEntity
  8
2
  6
CONTINUOUS
 62
     7
100
AcDbLine
 10
2519.132173
 20
627.389435
 30
0.0
 11
2521.152973
 21
623.889435
 31
0.0
  0
LINE
  5
94
100
AcDbEntity
  8
2
  6
CONTINUOUS
 62
     7
100
AcDbLine
 10
2525.194573
 20
623.890235
 30
0.0
 11
2521.152973
 21
623.890235
 31
0.0
  0
LINE
  5
95
100
AcDbEntity
  8
2
  6
CONTINUOUS
 62
     7
100
AcDbLine
 10
2527.215373
 20
627.389435
 30
0.0
 11
2525.194573
 21
623.889435
 31
0.0
  0
LINE
  5
96
100
AcDbEntity
  8
2
  6
CONTINUOUS
 62
     7
100
AcDbLine
 10
2525.194573
 20
630.889435
 30
0.0
 11
2527.215373
 21
627.389435
 31
0.0
  0
LINE
  5
97
100
AcDbEntity
  8
2
  6
CONTINUOUS
 62
     7
100
AcDbLine
 10
2521.152973
 20
630.890235
 30
0.0
 11
2525.194573
 21
630.890235
 31
0.0
  0
LINE
  5
98
100
AcDbEntity
  8
2
  6
CONTINUOUS
 62
     7
100
AcDbLine
 10
2516.173773
 20
616.390235
 30
0.0
 11
2530.173773
 21
616.390235
 31
0.0
  0
LINE
  5
99
100
AcDbEntity
  8
2
  6
CONTINUOUS
 62
     7
100
AcDbLine
 10
2530.173773
 20
637.890235
 30
0.0
 11
2530.173773
 21
616.390235
 31
0.0
  0
LINE
  5
9A
100
AcDbEntity
  8
2
  6
CONTINUOUS
 62
     7
100
AcDbLine
 10
2516.173773
 20
627.390235
 30
0.0
 11
2516.173773
 21
625.390235
 31
0.0
  0
LINE
  5
9B
100
AcDbEntity
  8
2
  6
CONTINUOUS
 62
     7
100
AcDbLine
 10
2516.173773
 20
616.390235
 30
0.0
 11
2515.173773
 21
615.390235
 31
0.0
  0
LINE
  5
9C
100
AcDbEntity
  8
2
  6
CONTINUOUS
 62
     7
100
AcDbLine
 10
2530.173773
 20
616.389435
 30
0.0
 11
2531.173773
 21
615.390235
 31
0.0
  0
LINE
  5
9D
100
AcDbEntity
  8
2
  6
CONTINUOUS
 62
     7
100
AcDbLine
 10
2512.673773
 20
625.390235
 30
0.0
 11
2516.173773
 21
625.390235
 31
0.0
  0
LINE
  5
9E
100
AcDbEntity
  8
2
  6
HIDDEN
 62
     7
100
AcDbLine
 10
2525.173773
 20
634.390235
 30
0.0
 11
2530.173773
 21
634.390235
 31
0.0
  0
LINE
  5
9F
100
AcDbEntity
  8
2
  6
CONTINUOUS
 62
     7
100
AcDbLine
 10
2530.173773
 20
625.390235
 30
0.0
 11
2533.673773
 21
625.390235
 31
0.0
  0
LINE
  5
A0
100
AcDbEntity
  8
2
  6
CONTINUOUS
 62
     7
100
AcDbLine
 10
2530.173773
 20
629.390235
 30
0.0
 11
2533.673773
 21
629.390235
 31
0.0
  0
LINE
  5
A1
100
AcDbEntity
  8
2
  6
CONTINUOUS
 62
     7
100
AcDbLine
 10
2512.673773
 20
620.390235
 30
0.0
 11
2516.173773
 21
620.390235
 31
0.0
  0
LINE
  5
A2
100
AcDbEntity
  8
2
  6
CONTINUOUS
 62
     7
100
AcDbLine
 10
2516.173773
 20
620.390235
 30
0.0
 11
2516.173773
 21
616.390235
 31
0.0
  0
LINE
  5
A3
100
AcDbEntity
  8
2
  6
HIDDEN
 62
     7
100
AcDbLine
 10
2516.173773
 20
625.390235
 30
0.0
 11
2516.173773
 21
620.390235
 31
0.0
  0
LINE
  5
A4
100
AcDbEntity
  8
2
  6
CONTINUOUS
 62
     7
100
AcDbLine
 10
2516.673773
 20
642.390235
 30
0.0
 11
2516.673773
 21
629.987835
 31
0.0
  0
LINE
  5
A5
100
AcDbEntity
  8
2
  6
CONTINUOUS
 62
     7
100
AcDbLine
 10
2514.673773
 20
605.390235
 30
0.0
 11
2515.173773
 21
608.225435
 31
0.0
  0
LINE
  5
A6
100
AcDbEntity
  8
2
  6
CONTINUOUS
 62
     7
100
AcDbLine
 10
2515.173773
 20
615.390235
 30
0.0
 11
2515.173773
 21
608.225435
 31
0.0
  0
LINE
  5
A7
100
AcDbEntity
  8
2
  6
CONTINUOUS
 62
     7
100
AcDbLine
 10
2531.173773
 20
615.390235
 30
0.0
 11
2531.173773
 21
608.225435
 31
0.0
  0
LINE
  5
A8
100
AcDbEntity
  8
2
  6
CONTINUOUS
 62
     7
100
AcDbLine
 10
2531.673773
 20
605.389435
 30
0.0
 11
2531.173773
 21
608.225435
 31
0.0
  0
LINE
  5
A9
100
AcDbEntity
  8
2
  6
CONTINUOUS
 62
     7
100
AcDbLine
 10
2525.173773
 20
637.890235
 30
0.0
 11
2530.173773
 21
637.890235
 31
0.0
  0
LINE
  5
AA
100
AcDbEntity
  8
2
  6
CONTINUOUS
 62
     7
100
AcDbLine
 10
1714.173773
 20
670.389435
 30
0.0
 11
1714.173773
 21
662.390235
 31
0.0
  0
LINE
  5
AB
100
AcDbEntity
  8
2
  6
CONTINUOUS
 62
     7
100
AcDbLine
 10
1714.173773
 20
662.390235
 30
0.0
 11
1723.173773
 21
662.390235
 31
0.0
  0
LINE
  5
AC
100
AcDbEntity
  8
2
  6
CONTINUOUS
 62
     7
100
AcDbLine
 10
1714.826573
 20
655.390235
 30
0.0
 11
1714.643373
 21
662.390235
 31
0.0
  0
LINE
  5
AD
100
AcDbEntity
  8
2
  6
CONTINUOUS
 62
     7
100
AcDbLine
 10
1715.681773
 20
655.390235
 30
0.0
 11
1715.539373
 21
660.838235
 31
0.0
  0
LINE
  5
AE
100
AcDbEntity
  8
2
  6
CONTINUOUS
 62
     7
100
AcDbLine
 10
1714.643373
 20
662.389435
 30
0.0
 11
1715.539373
 21
660.838235
 31
0.0
  0
LINE
  5
AF
100
AcDbEntity
  8
2
  6
CONTINUOUS
 62
     7
100
AcDbLine
 10
1714.684173
 20
660.838235
 30
0.0
 11
1723.173773
 21
660.838235
 31
0.0
  0
LINE
  5
B0
100
AcDbEntity
  8
2
  6
CONTINUOUS
 62
     7
100
AcDbLine
 10
1731.663373
 20
660.838235
 30
0.0
 11
1723.173773
 21
660.838235
 31
0.0
  0
LINE
  5
B1
100
AcDbEntity
  8
2
  6
CONTINUOUS
 62
     7
100
AcDbLine
 10
1732.173773
 20
670.389435
 30
0.0
 11
1732.173773
 21
662.390235
 31
0.0
  0
LINE
  5
B2
100
AcDbEntity
  8
2
  6
CONTINUOUS
 62
     7
100
AcDbLine
 10
1732.173773
 20
662.390235
 30
0.0
 11
1723.173773
 21
662.390235
 31
0.0
  0
LINE
  5
B3
100
AcDbEntity
  8
2
  6
CONTINUOUS
 62
     7
100
AcDbLine
 10
1731.520973
 20
655.389435
 30
0.0
 11
1731.704173
 21
662.390235
 31
0.0
  0
LINE
  5
B4
100
AcDbEntity
  8
2
  6
CONTINUOUS
 62
     7
100
AcDbLine
 10
1730.665773
 20
655.390235
 30
0.0
 11
1730.808173
 21
660.838235
 31
0.0
  0
LINE
  5
B5
100
AcDbEntity
  8
2
  6
CONTINUOUS
 62
     7
100
AcDbLine
 10
1731.704173
 20
662.389435
 30
0.0
 11
1730.808173
 21
660.838235
 31
0.0
  0
LINE
  5
B6
100
AcDbEntity
  8
2
  6
CENTER
 62
     7
100
AcDbLine
 10
1723.173773
 20
706.739835
 30
0.0
 11
1723.173773
 21
655.739835
 31
0.0
  0
LINE
  5
B7
100
AcDbEntity
  8
2
  6
CENTER
 62
     7
100
AcDbLine
 10
1706.548173
 20
627.390235
 30
0.0
 11
1736.892173
 21
627.390235
 31
0.0
  0
LINE
  5
B8
100
AcDbEntity
  8
2
  6
CENTER
 62
     7
100
AcDbLine
 10
1723.173773
 20
659.542235
 30
0.0
 11
1723.173773
 21
559.180635
 31
0.0
  0
LINE
  5
B9
100
AcDbEntity
  8
2
  6
CONTINUOUS
 62
     7
100
AcDbLine
 10
1712.673773
 20
655.390235
 30
0.0
 11
1733.673773
 21
655.390235
 31
0.0
  0
LINE
  5
BA
100
AcDbEntity
  8
2
  6
CONTINUOUS
 62
     7
100
AcDbLine
 10
1712.673773
 20
605.390235
 30
0.0
 11
1714.673773
 21
605.390235
 31
0.0
  0
LINE
  5
BB
100
AcDbEntity
  8
2
  6
CONTINUOUS
 62
     7
100
AcDbLine
 10
1712.673773
 20
655.390235
 30
0.0
 11
1712.673773
 21
605.390235
 31
0.0
  0
LINE
  5
BC
100
AcDbEntity
  8
2
  6
CONTINUOUS
 62
     7
100
AcDbLine
 10
1733.673773
 20
655.390235
 30
0.0
 11
1733.673773
 21
605.390235
 31
0.0
  0
LINE
  5
BD
100
AcDbEntity
  8
2
  6
CONTINUOUS
 62
     7
100
AcDbLine
 10
1731.673773
 20
605.390235
 30
0.0
 11
1733.673773
 21
605.390235
 31
0.0
  0
LINE
  5
BE
100
AcDbEntity
  8
2
  6
CONTINUOUS
 62
     7
100
AcDbLine
 10
1712.673773
 20
629.390235
 30
0.0
 11
1716.465773
 21
629.390235
 31
0.0
  0
LINE
  5
BF
100
AcDbEntity
  8
2
  6
CONTINUOUS
 62
     7
100
AcDbLine
 10
1716.673773
 20
642.390235
 30
0.0
 11
1729.673773
 21
642.390235
 31
0.0
  0
LINE
  5
C0
100
AcDbEntity
  8
2
  6
CONTINUOUS
 62
     7
100
AcDbLine
 10
1722.173773
 20
654.890235
 30
0.0
 11
1722.173773
 21
643.390235
 31
0.0
  0
LINE
  5
C1
100
AcDbEntity
  8
2
  6
CONTINUOUS
 62
     7
100
AcDbLine
 10
1724.173773
 20
654.890235
 30
0.0
 11
1724.173773
 21
643.390235
 31
0.0
  0
LINE
  5
C2
100
AcDbEntity
  8
2
  6
CONTINUOUS
 62
     7
100
AcDbLine
 10
1729.673773
 20
642.390235
 30
0.0
 11
1729.673773
 21
637.890235
 31
0.0
  0
LINE
  5
C3
100
AcDbEntity
  8
2
  6
CONTINUOUS
 62
     7
100
AcDbLine
 10
1722.173773
 20
643.390235
 30
0.0
 11
1724.173773
 21
643.390235
 31
0.0
  0
LINE
  5
C4
100
AcDbEntity
  8
2
  6
CONTINUOUS
 62
     7
100
AcDbLine
 10
1716.673773
 20
642.390235
 30
0.0
 11
1722.173773
 21
643.390235
 31
0.0
  0
LINE
  5
C5
100
AcDbEntity
  8
2
  6
CONTINUOUS
 62
     7
100
AcDbLine
 10
1724.173773
 20
643.390235
 30
0.0
 11
1729.673773
 21
642.389435
 31
0.0
  0
LINE
  5
C6
100
AcDbEntity
  8
2
  6
CONTINUOUS
 62
     7
100
AcDbLine
 10
1713.173773
 20
654.890235
 30
0.0
 11
1713.173773
 21
629.390235
 31
0.0
  0
LINE
  5
C7
100
AcDbEntity
  8
2
  6
CONTINUOUS
 62
     7
100
AcDbLine
 10
1713.173773
 20
620.390235
 30
0.0
 11
1713.173773
 21
605.890235
 31
0.0
  0
LINE
  5
C8
100
AcDbEntity
  8
2
  6
CONTINUOUS
 62
     7
100
AcDbLine
 10
1733.173773
 20
625.390235
 30
0.0
 11
1733.173773
 21
605.890235
 31
0.0
  0
LINE
  5
C9
100
AcDbEntity
  8
2
  6
CONTINUOUS
 62
     7
100
AcDbLine
 10
1733.173773
 20
654.890235
 30
0.0
 11
1733.173773
 21
629.390235
 31
0.0
  0
LINE
  5
CA
100
AcDbEntity
  8
2
  6
CONTINUOUS
 62
     7
100
AcDbLine
 10
1722.173773
 20
654.890235
 30
0.0
 11
1724.173773
 21
654.890235
 31
0.0
  0
LINE
  5
CB
100
AcDbEntity
  8
2
  6
CONTINUOUS
 62
     7
100
AcDbLine
 10
1712.673773
 20
605.890235
 30
0.0
 11
1713.173773
 21
605.890235
 31
0.0
  0
LINE
  5
CC
100
AcDbEntity
  8
2
  6
CONTINUOUS
 62
     7
100
AcDbLine
 10
1713.173773
 20
605.889435
 30
0.0
 11
1714.673773
 21
605.389435
 31
0.0
  0
LINE
  5
CD
100
AcDbEntity
  8
2
  6
CONTINUOUS
 62
     7
100
AcDbLine
 10
1712.673773
 20
654.890235
 30
0.0
 11
1713.173773
 21
654.890235
 31
0.0
  0
LINE
  5
CE
100
AcDbEntity
  8
2
  6
CONTINUOUS
 62
     7
100
AcDbLine
 10
1733.173773
 20
654.890235
 30
0.0
 11
1733.673773
 21
654.890235
 31
0.0
  0
LINE
  5
CF
100
AcDbEntity
  8
2
  6
CONTINUOUS
 62
     7
100
AcDbLine
 10
1733.173773
 20
605.890235
 30
0.0
 11
1733.673773
 21
605.890235
 31
0.0
  0
LINE
  5
D0
100
AcDbEntity
  8
2
  6
CONTINUOUS
 62
     7
100
AcDbLine
 10
1731.673773
 20
605.390235
 30
0.0
 11
1733.173773
 21
605.890235
 31
0.0
  0
LINE
  5
D1
100
AcDbEntity
  8
2
  6
CONTINUOUS
 62
     7
100
AcDbLine
 10
1725.173773
 20
637.890235
 30
0.0
 11
1725.173773
 21
634.390235
 31
0.0
  0
LINE
  5
D2
100
AcDbEntity
  8
2
  6
CONTINUOUS
 62
     7
100
AcDbLine
 10
1723.173773
 20
634.390235
 30
0.0
 11
1725.173773
 21
634.390235
 31
0.0
  0
LINE
  5
D3
100
AcDbEntity
  8
2
  6
CONTINUOUS
 62
     7
100
AcDbLine
 10
1723.173773
 20
565.389435
 30
0.0
 11
1729.173773
 21
568.854235
 31
0.0
  0
LINE
  5
D4
100
AcDbEntity
  8
2
  6
CONTINUOUS
 62
     7
100
AcDbLine
 10
1729.173773
 20
568.854235
 30
0.0
 11
1731.673773
 21
605.389435
 31
0.0
  0
LINE
  5
D5
100
AcDbEntity
  8
2
  6
CONTINUOUS
 62
     7
100
AcDbLine
 10
1717.173773
 20
568.854235
 30
0.0
 11
1714.673773
 21
605.390235
 31
0.0
  0
LINE
  5
D6
100
AcDbEntity
  8
2
  6
CONTINUOUS
 62
     7
100
AcDbLine
 10
1723.173773
 20
565.389435
 30
0.0
 11
1717.173773
 21
568.854235
 31
0.0
  0
LINE
  5
D7
100
AcDbEntity
  8
2
  6
CONTINUOUS
 62
     7
100
AcDbLine
 10
1717.036173
 20
610.390235
 30
0.0
 11
1723.173773
 21
610.390235
 31
0.0
  0
LINE
  5
D8
100
AcDbEntity
  8
2
  6
CONTINUOUS
 62
     7
100
AcDbLine
 10
1717.036173
 20
610.389435
 30
0.0
 11
1716.129773
 21
609.483035
 31
0.0
  0
LINE
  5
D9
100
AcDbEntity
  8
2
  6
CONTINUOUS
 62
     7
100
AcDbLine
 10
1729.311373
 20
610.390235
 30
0.0
 11
1723.173773
 21
610.390235
 31
0.0
  0
LINE
  5
DA
100
AcDbEntity
  8
2
  6
CONTINUOUS
 62
     7
100
AcDbLine
 10
1729.311373
 20
610.389435
 30
0.0
 11
1730.217773
 21
609.483035
 31
0.0
  0
LINE
  5
DB
100
AcDbEntity
  8
2
  6
CONTINUOUS
 62
     7
100
AcDbLine
 10
1721.173773
 20
628.890235
 30
0.0
 11
1721.173773
 21
625.890235
 31
0.0
  0
LINE
  5
DC
100
AcDbEntity
  8
2
  6
CONTINUOUS
 62
     7
100
AcDbLine
 10
1725.173773
 20
628.890235
 30
0.0
 11
1725.173773
 21
625.890235
 31
0.0
  0
LINE
  5
DD
100
AcDbEntity
  8
2
  6
CONTINUOUS
 62
     7
100
AcDbLine
 10
1721.152973
 20
630.889435
 30
0.0
 11
1719.132173
 21
627.389435
 31
0.0
  0
LINE
  5
DE
100
AcDbEntity
  8
2
  6
CONTINUOUS
 62
     7
100
AcDbLine
 10
1719.132173
 20
627.389435
 30
0.0
 11
1721.152973
 21
623.889435
 31
0.0
  0
LINE
  5
DF
100
AcDbEntity
  8
2
  6
CONTINUOUS
 62
     7
100
AcDbLine
 10
1725.194573
 20
623.890235
 30
0.0
 11
1721.152973
 21
623.890235
 31
0.0
  0
LINE
  5
E0
100
AcDbEntity
  8
2
  6
CONTINUOUS
 62
     7
100
AcDbLine
 10
1727.215373
 20
627.389435
 30
0.0
 11
1725.194573
 21
623.889435
 31
0.0
  0
LINE
  5
E1
100
AcDbEntity
  8
2
  6
CONTINUOUS
 62
     7
100
AcDbLine
 10
1725.194573
 20
630.889435
 30
0.0
 11
1727.215373
 21
627.389435
 31
0.0
  0
LINE
  5
E2
100
AcDbEntity
  8
2
  6
CONTINUOUS
 62
     7
100
AcDbLine
 10
1721.152973
 20
630.890235
 30
0.0
 11
1725.194573
 21
630.890235
 31
0.0
  0
LINE
  5
E3
100
AcDbEntity
  8
2
  6
CONTINUOUS
 62
     7
100
AcDbLine
 10
1716.173773
 20
616.390235
 30
0.0
 11
1730.173773
 21
616.390235
 31
0.0
  0
LINE
  5
E4
100
AcDbEntity
  8
2
  6
CONTINUOUS
 62
     7
100
AcDbLine
 10
1730.173773
 20
637.890235
 30
0.0
 11
1730.173773
 21
616.390235
 31
0.0
  0
LINE
  5
E5
100
AcDbEntity
  8
2
  6
CONTINUOUS
 62
     7
100
AcDbLine
 10
1716.173773
 20
627.390235
 30
0.0
 11
1716.173773
 21
625.390235
 31
0.0
  0
LINE
  5
E6
100
AcDbEntity
  8
2
  6
CONTINUOUS
 62
     7
100
AcDbLine
 10
1716.173773
 20
616.390235
 30
0.0
 11
1715.173773
 21
615.390235
 31
0.0
  0
LINE
  5
E7
100
AcDbEntity
  8
2
  6
CONTINUOUS
 62
     7
100
AcDbLine
 10
1730.173773
 20
616.389435
 30
0.0
 11
1731.173773
 21
615.390235
 31
0.0
  0
LINE
  5
E8
100
AcDbEntity
  8
2
  6
CONTINUOUS
 62
     7
100
AcDbLine
 10
1712.673773
 20
625.390235
 30
0.0
 11
1716.173773
 21
625.390235
 31
0.0
  0
LINE
  5
E9
100
AcDbEntity
  8
2
  6
HIDDEN
 62
     7
100
AcDbLine
 10
1725.173773
 20
634.390235
 30
0.0
 11
1730.173773
 21
634.390235
 31
0.0
  0
LINE
  5
EA
100
AcDbEntity
  8
2
  6
CONTINUOUS
 62
     7
100
AcDbLine
 10
1730.173773
 20
625.390235
 30
0.0
 11
1733.673773
 21
625.390235
 31
0.0
  0
LINE
  5
EB
100
AcDbEntity
  8
2
  6
CONTINUOUS
 62
     7
100
AcDbLine
 10
1730.173773
 20
629.390235
 30
0.0
 11
1733.673773
 21
629.390235
 31
0.0
  0
LINE
  5
EC
100
AcDbEntity
  8
2
  6
CONTINUOUS
 62
     7
100
AcDbLine
 10
1712.673773
 20
620.390235
 30
0.0
 11
1716.173773
 21
620.390235
 31
0.0
  0
LINE
  5
ED
100
AcDbEntity
  8
2
  6
CONTINUOUS
 62
     7
100
AcDbLine
 10
1716.173773
 20
620.390235
 30
0.0
 11
1716.173773
 21
616.390235
 31
0.0
  0
LINE
  5
EE
100
AcDbEntity
  8
2
  6
HIDDEN
 62
     7
100
AcDbLine
 10
1716.173773
 20
625.390235
 30
0.0
 11
1716.173773
 21
620.390235
 31
0.0
  0
LINE
  5
EF
100
AcDbEntity
  8
2
  6
CONTINUOUS
 62
     7
100
AcDbLine
 10
1716.673773
 20
642.390235
 30
0.0
 11
1716.673773
 21
629.987835
 31
0.0
  0
LINE
  5
F0
100
AcDbEntity
  8
2
  6
CONTINUOUS
 62
     7
100
AcDbLine
 10
1714.673773
 20
605.390235
 30
0.0
 11
1715.173773
 21
608.225435
 31
0.0
  0
LINE
  5
F1
100
AcDbEntity
  8
2
  6
CONTINUOUS
 62
     7
100
AcDbLine
 10
1715.173773
 20
615.390235
 30
0.0
 11
1715.173773
 21
608.225435
 31
0.0
  0
LINE
  5
F2
100
AcDbEntity
  8
2
  6
CONTINUOUS
 62
     7
100
AcDbLine
 10
1731.173773
 20
615.390235
 30
0.0
 11
1731.173773
 21
608.225435
 31
0.0
  0
LINE
  5
F3
100
AcDbEntity
  8
2
  6
CONTINUOUS
 62
     7
100
AcDbLine
 10
1731.673773
 20
605.389435
 30
0.0
 11
1731.173773
 21
608.225435
 31
0.0
  0
LINE
  5
F4
100
AcDbEntity
  8
2
  6
CONTINUOUS
 62
     7
100
AcDbLine
 10
1725.173773
 20
637.890235
 30
0.0
 11
1730.173773
 21
637.890235
 31
0.0
  0
LINE
  5
F5
100
AcDbEntity
  8
2
  6
CONTINUOUS
 62
     7
100
AcDbLine
 10
1714.173773
 20
667.390235
 30
0.0
 11
1711.173773
 21
670.389435
 31
0.0
  0
LINE
  5
F6
100
AcDbEntity
  8
2
  6
CONTINUOUS
 62
     7
100
AcDbLine
 10
1732.173773
 20
667.389435
 30
0.0
 11
1735.173773
 21
670.389435
 31
0.0
  0
LINE
  5
F7
100
AcDbEntity
  8
2
  6
CONTINUOUS
 62
     7
100
AcDbLine
 10
1923.173773
 20
670.389435
 30
0.0
 11
2114.173773
 21
670.389435
 31
0.0
  0
LINE
  5
F8
100
AcDbEntity
  8
2
  6
CONTINUOUS
 62
     7
100
AcDbLine
 10
2132.173773
 20
670.389435
 30
0.0
 11
2323.173773
 21
670.389435
 31
0.0
  0
LINE
  5
F9
100
AcDbEntity
  8
2
  6
CONTINUOUS
 62
     7
100
AcDbLine
 10
2114.173773
 20
670.389435
 30
0.0
 11
2114.173773
 21
662.390235
 31
0.0
  0
LINE
  5
FA
100
AcDbEntity
  8
2
  6
CONTINUOUS
 62
     7
100
AcDbLine
 10
2114.173773
 20
662.390235
 30
0.0
 11
2123.173773
 21
662.390235
 31
0.0
  0
LINE
  5
FB
100
AcDbEntity
  8
2
  6
CONTINUOUS
 62
     7
100
AcDbLine
 10
2114.826573
 20
655.389435
 30
0.0
 11
2114.643373
 21
662.390235
 31
0.0
  0
LINE
  5
FC
100
AcDbEntity
  8
2
  6
CONTINUOUS
 62
     7
100
AcDbLine
 10
2115.681773
 20
655.390235
 30
0.0
 11
2115.538573
 21
660.838235
 31
0.0
  0
LINE
  5
FD
100
AcDbEntity
  8
2
  6
CONTINUOUS
 62
     7
100
AcDbLine
 10
2114.643373
 20
662.389435
 30
0.0
 11
2115.539373
 21
660.838235
 31
0.0
  0
LINE
  5
FE
100
AcDbEntity
  8
2
  6
CONTINUOUS
 62
     7
100
AcDbLine
 10
2114.684173
 20
660.838235
 30
0.0
 11
2123.173773
 21
660.838235
 31
0.0
  0
LINE
  5
FF
100
AcDbEntity
  8
2
  6
CONTINUOUS
 62
     7
100
AcDbLine
 10
2131.663373
 20
660.838235
 30
0.0
 11
2123.173773
 21
660.838235
 31
0.0
  0
LINE
  5
100
100
AcDbEntity
  8
2
  6
CONTINUOUS
 62
     7
100
AcDbLine
 10
2132.173773
 20
670.389435
 30
0.0
 11
2132.173773
 21
662.390235
 31
0.0
  0
LINE
  5
101
100
AcDbEntity
  8
2
  6
CONTINUOUS
 62
     7
100
AcDbLine
 10
2132.173773
 20
662.390235
 30
0.0
 11
2123.173773
 21
662.390235
 31
0.0
  0
LINE
  5
102
100
AcDbEntity
  8
2
  6
CONTINUOUS
 62
     7
100
AcDbLine
 10
2131.520973
 20
655.390235
 30
0.0
 11
2131.704173
 21
662.389435
 31
0.0
  0
LINE
  5
103
100
AcDbEntity
  8
2
  6
CONTINUOUS
 62
     7
100
AcDbLine
 10
2130.665773
 20
655.389435
 30
0.0
 11
2130.808173
 21
660.838235
 31
0.0
  0
LINE
  5
104
100
AcDbEntity
  8
2
  6
CONTINUOUS
 62
     7
100
AcDbLine
 10
2131.704173
 20
662.389435
 30
0.0
 11
2130.808173
 21
660.838235
 31
0.0
  0
LINE
  5
105
100
AcDbEntity
  8
2
  6
CONTINUOUS
 62
     7
100
AcDbLine
 10
2132.173773
 20
667.390235
 30
0.0
 11
2135.173773
 21
670.390235
 31
0.0
  0
LINE
  5
106
100
AcDbEntity
  8
2
  6
CONTINUOUS
 62
     7
100
AcDbLine
 10
2114.173773
 20
667.389435
 30
0.0
 11
2111.173773
 21
670.389435
 31
0.0
  0
LINE
  5
107
100
AcDbEntity
  8
2
  6
CENTER
 62
     7
100
AcDbLine
 10
2123.173773
 20
706.739835
 30
0.0
 11
2123.173773
 21
655.739835
 31
0.0
  0
LINE
  5
108
100
AcDbEntity
  8
2
  6
CENTER
 62
     7
100
AcDbLine
 10
2106.548173
 20
627.390235
 30
0.0
 11
2136.892173
 21
627.390235
 31
0.0
  0
LINE
  5
109
100
AcDbEntity
  8
2
  6
CENTER
 62
     7
100
AcDbLine
 10
2123.173773
 20
659.542235
 30
0.0
 11
2123.173773
 21
559.180635
 31
0.0
  0
LINE
  5
10A
100
AcDbEntity
  8
2
  6
CONTINUOUS
 62
     7
100
AcDbLine
 10
2112.673773
 20
655.390235
 30
0.0
 11
2133.673773
 21
655.390235
 31
0.0
  0
LINE
  5
10B
100
AcDbEntity
  8
2
  6
CONTINUOUS
 62
     7
100
AcDbLine
 10
2112.673773
 20
605.390235
 30
0.0
 11
2114.673773
 21
605.390235
 31
0.0
  0
LINE
  5
10C
100
AcDbEntity
  8
2
  6
CONTINUOUS
 62
     7
100
AcDbLine
 10
2112.673773
 20
655.390235
 30
0.0
 11
2112.673773
 21
605.390235
 31
0.0
  0
LINE
  5
10D
100
AcDbEntity
  8
2
  6
CONTINUOUS
 62
     7
100
AcDbLine
 10
2133.673773
 20
655.390235
 30
0.0
 11
2133.673773
 21
605.390235
 31
0.0
  0
LINE
  5
10E
100
AcDbEntity
  8
2
  6
CONTINUOUS
 62
     7
100
AcDbLine
 10
2131.673773
 20
605.390235
 30
0.0
 11
2133.673773
 21
605.390235
 31
0.0
  0
LINE
  5
10F
100
AcDbEntity
  8
2
  6
CONTINUOUS
 62
     7
100
AcDbLine
 10
2112.673773
 20
629.390235
 30
0.0
 11
2116.465773
 21
629.390235
 31
0.0
  0
LINE
  5
110
100
AcDbEntity
  8
2
  6
CONTINUOUS
 62
     7
100
AcDbLine
 10
2116.673773
 20
642.390235
 30
0.0
 11
2129.673773
 21
642.390235
 31
0.0
  0
LINE
  5
111
100
AcDbEntity
  8
2
  6
CONTINUOUS
 62
     7
100
AcDbLine
 10
2122.173773
 20
654.890235
 30
0.0
 11
2122.173773
 21
643.390235
 31
0.0
  0
LINE
  5
112
100
AcDbEntity
  8
2
  6
CONTINUOUS
 62
     7
100
AcDbLine
 10
2124.173773
 20
654.890235
 30
0.0
 11
2124.173773
 21
643.390235
 31
0.0
  0
LINE
  5
113
100
AcDbEntity
  8
2
  6
CONTINUOUS
 62
     7
100
AcDbLine
 10
2129.673773
 20
642.390235
 30
0.0
 11
2129.673773
 21
637.890235
 31
0.0
  0
LINE
  5
114
100
AcDbEntity
  8
2
  6
CONTINUOUS
 62
     7
100
AcDbLine
 10
2122.173773
 20
643.390235
 30
0.0
 11
2124.173773
 21
643.390235
 31
0.0
  0
LINE
  5
115
100
AcDbEntity
  8
2
  6
CONTINUOUS
 62
     7
100
AcDbLine
 10
2116.673773
 20
642.390235
 30
0.0
 11
2122.173773
 21
643.389435
 31
0.0
  0
LINE
  5
116
100
AcDbEntity
  8
2
  6
CONTINUOUS
 62
     7
100
AcDbLine
 10
2124.173773
 20
643.389435
 30
0.0
 11
2129.673773
 21
642.390235
 31
0.0
  0
LINE
  5
117
100
AcDbEntity
  8
2
  6
CONTINUOUS
 62
     7
100
AcDbLine
 10
2113.173773
 20
654.890235
 30
0.0
 11
2113.173773
 21
629.390235
 31
0.0
  0
LINE
  5
118
100
AcDbEntity
  8
2
  6
CONTINUOUS
 62
     7
100
AcDbLine
 10
2113.173773
 20
620.390235
 30
0.0
 11
2113.173773
 21
605.890235
 31
0.0
  0
LINE
  5
119
100
AcDbEntity
  8
2
  6
CONTINUOUS
 62
     7
100
AcDbLine
 10
2133.173773
 20
625.390235
 30
0.0
 11
2133.173773
 21
605.890235
 31
0.0
  0
LINE
  5
11A
100
AcDbEntity
  8
2
  6
CONTINUOUS
 62
     7
100
AcDbLine
 10
2133.173773
 20
654.890235
 30
0.0
 11
2133.173773
 21
629.390235
 31
0.0
  0
LINE
  5
11B
100
AcDbEntity
  8
2
  6
CONTINUOUS
 62
     7
100
AcDbLine
 10
2122.173773
 20
654.890235
 30
0.0
 11
2124.173773
 21
654.890235
 31
0.0
  0
LINE
  5
11C
100
AcDbEntity
  8
2
  6
CONTINUOUS
 62
     7
100
AcDbLine
 10
2112.673773
 20
605.890235
 30
0.0
 11
2113.173773
 21
605.890235
 31
0.0
  0
LINE
  5
11D
100
AcDbEntity
  8
2
  6
CONTINUOUS
 62
     7
100
AcDbLine
 10
2113.173773
 20
605.890235
 30
0.0
 11
2114.673773
 21
605.390235
 31
0.0
  0
LINE
  5
11E
100
AcDbEntity
  8
2
  6
CONTINUOUS
 62
     7
100
AcDbLine
 10
2112.673773
 20
654.890235
 30
0.0
 11
2113.173773
 21
654.890235
 31
0.0
  0
LINE
  5
11F
100
AcDbEntity
  8
2
  6
CONTINUOUS
 62
     7
100
AcDbLine
 10
2133.173773
 20
654.890235
 30
0.0
 11
2133.673773
 21
654.890235
 31
0.0
  0
LINE
  5
120
100
AcDbEntity
  8
2
  6
CONTINUOUS
 62
     7
100
AcDbLine
 10
2133.173773
 20
605.890235
 30
0.0
 11
2133.673773
 21
605.890235
 31
0.0
  0
LINE
  5
121
100
AcDbEntity
  8
2
  6
CONTINUOUS
 62
     7
100
AcDbLine
 10
2131.673773
 20
605.390235
 30
0.0
 11
2133.173773
 21
605.890235
 31
0.0
  0
LINE
  5
122
100
AcDbEntity
  8
2
  6
CONTINUOUS
 62
     7
100
AcDbLine
 10
2125.173773
 20
637.890235
 30
0.0
 11
2125.173773
 21
634.390235
 31
0.0
  0
LINE
  5
123
100
AcDbEntity
  8
2
  6
CONTINUOUS
 62
     7
100
AcDbLine
 10
2123.173773
 20
634.390235
 30
0.0
 11
2125.173773
 21
634.390235
 31
0.0
  0
LINE
  5
124
100
AcDbEntity
  8
2
  6
CONTINUOUS
 62
     7
100
AcDbLine
 10
2123.173773
 20
565.389435
 30
0.0
 11
2129.173773
 21
568.854235
 31
0.0
  0
LINE
  5
125
100
AcDbEntity
  8
2
  6
CONTINUOUS
 62
     7
100
AcDbLine
 10
2129.173773
 20
568.854235
 30
0.0
 11
2131.673773
 21
605.389435
 31
0.0
  0
LINE
  5
126
100
AcDbEntity
  8
2
  6
CONTINUOUS
 62
     7
100
AcDbLine
 10
2117.173773
 20
568.854235
 30
0.0
 11
2114.673773
 21
605.390235
 31
0.0
  0
LINE
  5
127
100
AcDbEntity
  8
2
  6
CONTINUOUS
 62
     7
100
AcDbLine
 10
2123.173773
 20
565.389435
 30
0.0
 11
2117.173773
 21
568.854235
 31
0.0
  0
LINE
  5
128
100
AcDbEntity
  8
2
  6
CONTINUOUS
 62
     7
100
AcDbLine
 10
2117.036173
 20
610.390235
 30
0.0
 11
2123.173773
 21
610.390235
 31
0.0
  0
LINE
  5
129
100
AcDbEntity
  8
2
  6
CONTINUOUS
 62
     7
100
AcDbLine
 10
2117.036173
 20
610.389435
 30
0.0
 11
2116.129773
 21
609.483035
 31
0.0
  0
LINE
  5
12A
100
AcDbEntity
  8
2
  6
CONTINUOUS
 62
     7
100
AcDbLine
 10
2129.311373
 20
610.390235
 30
0.0
 11
2123.173773
 21
610.390235
 31
0.0
  0
LINE
  5
12B
100
AcDbEntity
  8
2
  6
CONTINUOUS
 62
     7
100
AcDbLine
 10
2129.311373
 20
610.389435
 30
0.0
 11
2130.217773
 21
609.483035
 31
0.0
  0
LINE
  5
12C
100
AcDbEntity
  8
2
  6
CONTINUOUS
 62
     7
100
AcDbLine
 10
2121.173773
 20
628.890235
 30
0.0
 11
2121.173773
 21
625.890235
 31
0.0
  0
LINE
  5
12D
100
AcDbEntity
  8
2
  6
CONTINUOUS
 62
     7
100
AcDbLine
 10
2125.173773
 20
628.890235
 30
0.0
 11
2125.173773
 21
625.890235
 31
0.0
  0
LINE
  5
12E
100
AcDbEntity
  8
2
  6
CONTINUOUS
 62
     7
100
AcDbLine
 10
2121.152973
 20
630.889435
 30
0.0
 11
2119.132173
 21
627.389435
 31
0.0
  0
LINE
  5
12F
100
AcDbEntity
  8
2
  6
CONTINUOUS
 62
     7
100
AcDbLine
 10
2119.132173
 20
627.389435
 30
0.0
 11
2121.152973
 21
623.890235
 31
0.0
  0
LINE
  5
130
100
AcDbEntity
  8
2
  6
CONTINUOUS
 62
     7
100
AcDbLine
 10
2125.194573
 20
623.890235
 30
0.0
 11
2121.152973
 21
623.890235
 31
0.0
  0
LINE
  5
131
100
AcDbEntity
  8
2
  6
CONTINUOUS
 62
     7
100
AcDbLine
 10
2127.215373
 20
627.389435
 30
0.0
 11
2125.194573
 21
623.889435
 31
0.0
  0
LINE
  5
132
100
AcDbEntity
  8
2
  6
CONTINUOUS
 62
     7
100
AcDbLine
 10
2125.194573
 20
630.889435
 30
0.0
 11
2127.215373
 21
627.390235
 31
0.0
  0
LINE
  5
133
100
AcDbEntity
  8
2
  6
CONTINUOUS
 62
     7
100
AcDbLine
 10
2121.152973
 20
630.890235
 30
0.0
 11
2125.194573
 21
630.890235
 31
0.0
  0
LINE
  5
134
100
AcDbEntity
  8
2
  6
CONTINUOUS
 62
     7
100
AcDbLine
 10
2116.173773
 20
616.390235
 30
0.0
 11
2130.173773
 21
616.390235
 31
0.0
  0
LINE
  5
135
100
AcDbEntity
  8
2
  6
CONTINUOUS
 62
     7
100
AcDbLine
 10
2130.173773
 20
637.890235
 30
0.0
 11
2130.173773
 21
616.390235
 31
0.0
  0
LINE
  5
136
100
AcDbEntity
  8
2
  6
CONTINUOUS
 62
     7
100
AcDbLine
 10
2116.173773
 20
627.390235
 30
0.0
 11
2116.173773
 21
625.390235
 31
0.0
  0
LINE
  5
137
100
AcDbEntity
  8
2
  6
CONTINUOUS
 62
     7
100
AcDbLine
 10
2116.173773
 20
616.390235
 30
0.0
 11
2115.173773
 21
615.390235
 31
0.0
  0
LINE
  5
138
100
AcDbEntity
  8
2
  6
CONTINUOUS
 62
     7
100
AcDbLine
 10
2130.173773
 20
616.390235
 30
0.0
 11
2131.173773
 21
615.390235
 31
0.0
  0
LINE
  5
139
100
AcDbEntity
  8
2
  6
CONTINUOUS
 62
     7
100
AcDbLine
 10
2112.673773
 20
625.390235
 30
0.0
 11
2116.173773
 21
625.390235
 31
0.0
  0
LINE
  5
13A
100
AcDbEntity
  8
2
  6
HIDDEN
 62
     7
100
AcDbLine
 10
2125.173773
 20
634.390235
 30
0.0
 11
2130.173773
 21
634.390235
 31
0.0
  0
LINE
  5
13B
100
AcDbEntity
  8
2
  6
CONTINUOUS
 62
     7
100
AcDbLine
 10
2130.173773
 20
625.390235
 30
0.0
 11
2133.673773
 21
625.390235
 31
0.0
  0
LINE
  5
13C
100
AcDbEntity
  8
2
  6
CONTINUOUS
 62
     7
100
AcDbLine
 10
2130.173773
 20
629.390235
 30
0.0
 11
2133.673773
 21
629.390235
 31
0.0
  0
LINE
  5
13D
100
AcDbEntity
  8
2
  6
CONTINUOUS
 62
     7
100
AcDbLine
 10
2112.673773
 20
620.390235
 30
0.0
 11
2116.173773
 21
620.390235
 31
0.0
  0
LINE
  5
13E
100
AcDbEntity
  8
2
  6
CONTINUOUS
 62
     7
100
AcDbLine
 10
2116.173773
 20
620.390235
 30
0.0
 11
2116.173773
 21
616.390235
 31
0.0
  0
LINE
  5
13F
100
AcDbEntity
  8
2
  6
HIDDEN
 62
     7
100
AcDbLine
 10
2116.173773
 20
625.390235
 30
0.0
 11
2116.173773
 21
620.390235
 31
0.0
  0
LINE
  5
140
100
AcDbEntity
  8
2
  6
CONTINUOUS
 62
     7
100
AcDbLine
 10
2116.673773
 20
642.390235
 30
0.0
 11
2116.673773
 21
629.987835
 31
0.0
  0
LINE
  5
141
100
AcDbEntity
  8
2
  6
CONTINUOUS
 62
     7
100
AcDbLine
 10
2114.673773
 20
605.390235
 30
0.0
 11
2115.173773
 21
608.225435
 31
0.0
  0
LINE
  5
142
100
AcDbEntity
  8
2
  6
CONTINUOUS
 62
     7
100
AcDbLine
 10
2115.173773
 20
615.390235
 30
0.0
 11
2115.173773
 21
608.225435
 31
0.0
  0
LINE
  5
143
100
AcDbEntity
  8
2
  6
CONTINUOUS
 62
     7
100
AcDbLine
 10
2131.173773
 20
615.390235
 30
0.0
 11
2131.173773
 21
608.225435
 31
0.0
  0
LINE
  5
144
100
AcDbEntity
  8
2
  6
CONTINUOUS
 62
     7
100
AcDbLine
 10
2131.673773
 20
605.390235
 30
0.0
 11
2131.173773
 21
608.225435
 31
0.0
  0
LINE
  5
145
100
AcDbEntity
  8
2
  6
CONTINUOUS
 62
     7
100
AcDbLine
 10
2125.173773
 20
637.890235
 30
0.0
 11
2130.173773
 21
637.890235
 31
0.0
  0
LINE
  5
146
100
AcDbEntity
  8
2
  6
CONTINUOUS
 62
     7
100
AcDbLine
 10
2323.173773
 20
670.389435
 30
0.0
 11
2514.173773
 21
670.389435
 31
0.0
  0
LINE
  5
147
100
AcDbEntity
  8
2
  6
CONTINUOUS
 62
     7
100
AcDbLine
 10
1304.424973
 20
928.739835
 30
0.0
 11
1304.424973
 21
833.739835
 31
0.0
  0
LINE
  5
148
100
AcDbEntity
  8
2
  6
CENTER
 62
     7
100
AcDbLine
 10
1310.396973
 20
881.239835
 30
0.0
 11
1004.424973
 21
881.239835
 31
0.0
  0
LINE
  5
149
100
AcDbEntity
  8
2
  6
CONTINUOUS
 62
     7
100
AcDbLine
 10
1304.424973
 20
855.739835
 30
0.0
 11
1303.424973
 21
855.739835
 31
0.0
  0
LINE
  5
14A
100
AcDbEntity
  8
2
  6
CONTINUOUS
 62
     7
100
AcDbLine
 10
1304.424973
 20
906.739835
 30
0.0
 11
1303.424973
 21
906.739835
 31
0.0
  0
LINE
  5
14B
100
AcDbEntity
  8
2
  6
CONTINUOUS
 62
     7
100
AcDbLine
 10
1301.424973
 20
928.739835
 30
0.0
 11
1292.424973
 21
928.739835
 31
0.0
  0
LINE
  5
14C
100
AcDbEntity
  8
2
  6
CONTINUOUS
 62
     7
100
AcDbLine
 10
1301.424973
 20
833.739835
 30
0.0
 11
1292.424973
 21
833.739835
 31
0.0
  0
LINE
  5
14D
100
AcDbEntity
  8
2
  6
CONTINUOUS
 62
     7
100
AcDbLine
 10
1286.424973
 20
899.090235
 30
0.0
 11
1284.424973
 21
899.090235
 31
0.0
  0
LINE
  5
14E
100
AcDbEntity
  8
2
  6
CONTINUOUS
 62
     7
100
AcDbLine
 10
1284.424973
 20
897.090235
 30
0.0
 11
1279.424973
 21
892.090235
 31
0.0
  0
LINE
  5
14F
100
AcDbEntity
  8
2
  6
CONTINUOUS
 62
     7
100
AcDbLine
 10
1290.424973
 20
835.739835
 30
0.0
 11
1290.424973
 21
881.239835
 31
0.0
  0
LINE
  5
150
100
AcDbEntity
  8
2
  6
CONTINUOUS
 62
     7
100
AcDbLine
 10
1286.424973
 20
863.390235
 30
0.0
 11
1284.424973
 21
863.390235
 31
0.0
  0
LINE
  5
151
100
AcDbEntity
  8
2
  6
CONTINUOUS
 62
     7
100
AcDbLine
 10
1284.424973
 20
863.390235
 30
0.0
 11
1284.424973
 21
881.239835
 31
0.0
  0
LINE
  5
152
100
AcDbEntity
  8
2
  6
CONTINUOUS
 62
     7
100
AcDbLine
 10
1284.424973
 20
865.390235
 30
0.0
 11
1279.424973
 21
870.390235
 31
0.0
  0
LINE
  5
153
100
AcDbEntity
  8
2
  6
CONTINUOUS
 62
     7
100
AcDbLine
 10
1279.424973
 20
881.239835
 30
0.0
 11
1279.424973
 21
870.389435
 31
0.0
  0
LINE
  5
154
100
AcDbEntity
  8
2
  6
CONTINUOUS
 62
     7
100
AcDbLine
 10
1303.424973
 20
881.239835
 30
0.0
 11
1303.424973
 21
835.739835
 31
0.0
  0
LINE
  5
155
100
AcDbEntity
  8
2
  6
CENTER
 62
     7
100
AcDbLine
 10
904.424973
 20
931.796635
 30
0.0
 11
904.424973
 21
876.797435
 31
0.0
  0
LINE
  5
156
100
AcDbEntity
  8
2
  6
CONTINUOUS
 62
     7
100
AcDbLine
 10
1279.424973
 20
870.389435
 30
0.0
 11
1113.424973
 21
870.389435
 31
0.0
  0
LINE
  5
157
100
AcDbEntity
  8
2
  6
CONTINUOUS
 62
     7
100
AcDbLine
 10
104.424973
 20
906.739835
 30
0.0
 11
104.424973
 21
855.739835
 31
0.0
  0
LINE
  5
158
100
AcDbEntity
  8
2
  6
CENTER
 62
     7
100
AcDbLine
 10
86.003373
 20
881.239835
 30
0.0
 11
1004.424973
 21
881.239835
 31
0.0
  0
LINE
  5
159
100
AcDbEntity
  8
2
  6
CONTINUOUS
 62
     7
100
AcDbLine
 10
104.424973
 20
855.739835
 30
0.0
 11
105.424973
 21
855.739835
 31
0.0
  0
LINE
  5
15A
100
AcDbEntity
  8
2
  6
CONTINUOUS
 62
     7
100
AcDbLine
 10
104.424973
 20
906.739835
 30
0.0
 11
105.424973
 21
906.739835
 31
0.0
  0
LINE
  5
15B
100
AcDbEntity
  8
2
  6
CONTINUOUS
 62
     7
100
AcDbLine
 10
107.424973
 20
928.739835
 30
0.0
 11
116.424973
 21
928.739835
 31
0.0
  0
LINE
  5
15C
100
AcDbEntity
  8
2
  6
CONTINUOUS
 62
     7
100
AcDbLine
 10
107.424973
 20
833.739835
 30
0.0
 11
116.424973
 21
833.739835
 31
0.0
  0
LINE
  5
15D
100
AcDbEntity
  8
2
  6
CONTINUOUS
 62
     7
100
AcDbLine
 10
122.424973
 20
899.090235
 30
0.0
 11
124.424973
 21
899.090235
 31
0.0
  0
LINE
  5
15E
100
AcDbEntity
  8
2
  6
CONTINUOUS
 62
     7
100
AcDbLine
 10
124.424973
 20
897.090235
 30
0.0
 11
129.424973
 21
892.089435
 31
0.0
  0
LINE
  5
15F
100
AcDbEntity
  8
2
  6
CONTINUOUS
 62
     7
100
AcDbLine
 10
118.424973
 20
835.739835
 30
0.0
 11
118.424973
 21
881.239835
 31
0.0
  0
LINE
  5
160
100
AcDbEntity
  8
2
  6
CONTINUOUS
 62
     7
100
AcDbLine
 10
122.424973
 20
863.390235
 30
0.0
 11
124.424973
 21
863.390235
 31
0.0
  0
LINE
  5
161
100
AcDbEntity
  8
2
  6
CONTINUOUS
 62
     7
100
AcDbLine
 10
124.424973
 20
863.390235
 30
0.0
 11
124.424973
 21
881.239835
 31
0.0
  0
LINE
  5
162
100
AcDbEntity
  8
2
  6
CONTINUOUS
 62
     7
100
AcDbLine
 10
124.424973
 20
865.390235
 30
0.0
 11
129.424973
 21
870.390235
 31
0.0
  0
LINE
  5
163
100
AcDbEntity
  8
2
  6
CONTINUOUS
 62
     7
100
AcDbLine
 10
129.424973
 20
881.239835
 30
0.0
 11
129.424973
 21
870.389435
 31
0.0
  0
LINE
  5
164
100
AcDbEntity
  8
2
  6
CONTINUOUS
 62
     7
100
AcDbLine
 10
105.424973
 20
881.239835
 30
0.0
 11
105.424973
 21
835.739835
 31
0.0
  0
LINE
  5
165
100
AcDbEntity
  8
2
  6
CONTINUOUS
 62
     7
100
AcDbLine
 10
1095.424973
 20
870.389435
 30
0.0
 11
904.424973
 21
870.389435
 31
0.0
  0
LINE
  5
166
100
AcDbEntity
  8
2
  6
CONTINUOUS
 62
     7
100
AcDbLine
 10
313.424973
 20
870.389435
 30
0.0
 11
313.424973
 21
862.390235
 31
0.0
  0
LINE
  5
167
100
AcDbEntity
  8
2
  6
CONTINUOUS
 62
     7
100
AcDbLine
 10
313.424973
 20
862.390235
 30
0.0
 11
304.424973
 21
862.390235
 31
0.0
  0
LINE
  5
168
100
AcDbEntity
  8
2
  6
CONTINUOUS
 62
     7
100
AcDbLine
 10
312.772173
 20
855.390235
 30
0.0
 11
312.955373
 21
862.389435
 31
0.0
  0
LINE
  5
169
100
AcDbEntity
  8
2
  6
CONTINUOUS
 62
     7
100
AcDbLine
 10
311.916973
 20
855.389435
 30
0.0
 11
312.060173
 21
860.838235
 31
0.0
  0
LINE
  5
16A
100
AcDbEntity
  8
2
  6
CONTINUOUS
 62
     7
100
AcDbLine
 10
312.955373
 20
862.390235
 30
0.0
 11
312.060173
 21
860.838235
 31
0.0
  0
LINE
  5
16B
100
AcDbEntity
  8
2
  6
CONTINUOUS
 62
     7
100
AcDbLine
 10
312.914573
 20
860.838235
 30
0.0
 11
304.424973
 21
860.838235
 31
0.0
  0
LINE
  5
16C
100
AcDbEntity
  8
2
  6
CONTINUOUS
 62
     7
100
AcDbLine
 10
295.935373
 20
860.838235
 30
0.0
 11
304.424973
 21
860.838235
 31
0.0
  0
LINE
  5
16D
100
AcDbEntity
  8
2
  6
CONTINUOUS
 62
     7
100
AcDbLine
 10
295.424973
 20
870.389435
 30
0.0
 11
295.424973
 21
862.390235
 31
0.0
  0
LINE
  5
16E
100
AcDbEntity
  8
2
  6
CONTINUOUS
 62
     7
100
AcDbLine
 10
295.424973
 20
862.390235
 30
0.0
 11
304.424973
 21
862.390235
 31
0.0
  0
LINE
  5
16F
100
AcDbEntity
  8
2
  6
CONTINUOUS
 62
     7
100
AcDbLine
 10
296.077773
 20
855.390235
 30
0.0
 11
295.894573
 21
862.389435
 31
0.0
  0
LINE
  5
170
100
AcDbEntity
  8
2
  6
CONTINUOUS
 62
     7
100
AcDbLine
 10
296.932973
 20
855.389435
 30
0.0
 11
296.790573
 21
860.838235
 31
0.0
  0
LINE
  5
171
100
AcDbEntity
  8
2
  6
CONTINUOUS
 62
     7
100
AcDbLine
 10
295.894573
 20
862.389435
 30
0.0
 11
296.790573
 21
860.838235
 31
0.0
  0
LINE
  5
172
100
AcDbEntity
  8
2
  6
CONTINUOUS
 62
     7
100
AcDbLine
 10
295.424973
 20
867.390235
 30
0.0
 11
292.424973
 21
870.390235
 31
0.0
  0
LINE
  5
173
100
AcDbEntity
  8
2
  6
CONTINUOUS
 62
     7
100
AcDbLine
 10
313.424973
 20
867.390235
 30
0.0
 11
316.424973
 21
870.390235
 31
0.0
  0
LINE
  5
174
100
AcDbEntity
  8
2
  6
CENTER
 62
     7
100
AcDbLine
 10
304.424973
 20
906.739835
 30
0.0
 11
304.424973
 21
855.739835
 31
0.0
  0
LINE
  5
175
100
AcDbEntity
  8
2
  6
CENTER
 62
     7
100
AcDbLine
 10
321.051373
 20
827.390235
 30
0.0
 11
290.706573
 21
827.390235
 31
0.0
  0
LINE
  5
176
100
AcDbEntity
  8
2
  6
CENTER
 62
     7
100
AcDbLine
 10
304.424973
 20
859.542235
 30
0.0
 11
304.424973
 21
759.180635
 31
0.0
  0
LINE
  5
177
100
AcDbEntity
  8
2
  6
CONTINUOUS
 62
     7
100
AcDbLine
 10
314.924973
 20
855.390235
 30
0.0
 11
293.924973
 21
855.390235
 31
0.0
  0
LINE
  5
178
100
AcDbEntity
  8
2
  6
CONTINUOUS
 62
     7
100
AcDbLine
 10
314.924973
 20
805.390235
 30
0.0
 11
312.924973
 21
805.390235
 31
0.0
  0
LINE
  5
179
100
AcDbEntity
  8
2
  6
CONTINUOUS
 62
     7
100
AcDbLine
 10
314.924973
 20
855.390235
 30
0.0
 11
314.924973
 21
805.390235
 31
0.0
  0
LINE
  5
17A
100
AcDbEntity
  8
2
  6
CONTINUOUS
 62
     7
100
AcDbLine
 10
293.924973
 20
855.390235
 30
0.0
 11
293.924973
 21
805.390235
 31
0.0
  0
LINE
  5
17B
100
AcDbEntity
  8
2
  6
CONTINUOUS
 62
     7
100
AcDbLine
 10
295.924973
 20
805.390235
 30
0.0
 11
293.924973
 21
805.390235
 31
0.0
  0
LINE
  5
17C
100
AcDbEntity
  8
2
  6
CONTINUOUS
 62
     7
100
AcDbLine
 10
314.924973
 20
829.390235
 30
0.0
 11
311.424973
 21
829.390235
 31
0.0
  0
LINE
  5
17D
100
AcDbEntity
  8
2
  6
CONTINUOUS
 62
     7
100
AcDbLine
 10
310.924973
 20
842.390235
 30
0.0
 11
297.924973
 21
842.390235
 31
0.0
  0
LINE
  5
17E
100
AcDbEntity
  8
2
  6
CONTINUOUS
 62
     7
100
AcDbLine
 10
305.424973
 20
854.890235
 30
0.0
 11
305.424973
 21
843.390235
 31
0.0
  0
LINE
  5
17F
100
AcDbEntity
  8
2
  6
CONTINUOUS
 62
     7
100
AcDbLine
 10
303.424973
 20
854.890235
 30
0.0
 11
303.424973
 21
843.390235
 31
0.0
  0
LINE
  5
180
100
AcDbEntity
  8
2
  6
CONTINUOUS
 62
     7
100
AcDbLine
 10
297.924973
 20
842.390235
 30
0.0
 11
297.924973
 21
829.987835
 31
0.0
  0
LINE
  5
181
100
AcDbEntity
  8
2
  6
CONTINUOUS
 62
     7
100
AcDbLine
 10
305.424973
 20
843.390235
 30
0.0
 11
303.424973
 21
843.390235
 31
0.0
  0
LINE
  5
182
100
AcDbEntity
  8
2
  6
CONTINUOUS
 62
     7
100
AcDbLine
 10
310.924973
 20
842.390235
 30
0.0
 11
305.424973
 21
843.390235
 31
0.0
  0
LINE
  5
183
100
AcDbEntity
  8
2
  6
CONTINUOUS
 62
     7
100
AcDbLine
 10
303.424973
 20
843.389435
 30
0.0
 11
297.924973
 21
842.389435
 31
0.0
  0
LINE
  5
184
100
AcDbEntity
  8
2
  6
CONTINUOUS
 62
     7
100
AcDbLine
 10
314.424973
 20
854.890235
 30
0.0
 11
314.424973
 21
829.390235
 31
0.0
  0
LINE
  5
185
100
AcDbEntity
  8
2
  6
CONTINUOUS
 62
     7
100
AcDbLine
 10
314.424973
 20
820.390235
 30
0.0
 11
314.424973
 21
805.890235
 31
0.0
  0
LINE
  5
186
100
AcDbEntity
  8
2
  6
CONTINUOUS
 62
     7
100
AcDbLine
 10
294.424973
 20
825.390235
 30
0.0
 11
294.424973
 21
805.890235
 31
0.0
  0
LINE
  5
187
100
AcDbEntity
  8
2
  6
CONTINUOUS
 62
     7
100
AcDbLine
 10
294.424973
 20
854.890235
 30
0.0
 11
294.424973
 21
829.390235
 31
0.0
  0
LINE
  5
188
100
AcDbEntity
  8
2
  6
CONTINUOUS
 62
     7
100
AcDbLine
 10
305.424973
 20
854.890235
 30
0.0
 11
303.424973
 21
854.890235
 31
0.0
  0
LINE
  5
189
100
AcDbEntity
  8
2
  6
CONTINUOUS
 62
     7
100
AcDbLine
 10
314.924973
 20
805.890235
 30
0.0
 11
314.424973
 21
805.890235
 31
0.0
  0
LINE
  5
18A
100
AcDbEntity
  8
2
  6
CONTINUOUS
 62
     7
100
AcDbLine
 10
314.424973
 20
805.889435
 30
0.0
 11
312.924973
 21
805.389435
 31
0.0
  0
LINE
  5
18B
100
AcDbEntity
  8
2
  6
CONTINUOUS
 62
     7
100
AcDbLine
 10
314.924973
 20
854.890235
 30
0.0
 11
314.424973
 21
854.890235
 31
0.0
  0
LINE
  5
18C
100
AcDbEntity
  8
2
  6
CONTINUOUS
 62
     7
100
AcDbLine
 10
294.424973
 20
854.890235
 30
0.0
 11
293.924973
 21
854.890235
 31
0.0
  0
LINE
  5
18D
100
AcDbEntity
  8
2
  6
CONTINUOUS
 62
     7
100
AcDbLine
 10
294.424973
 20
805.890235
 30
0.0
 11
293.924973
 21
805.890235
 31
0.0
  0
LINE
  5
18E
100
AcDbEntity
  8
2
  6
CONTINUOUS
 62
     7
100
AcDbLine
 10
295.924973
 20
805.390235
 30
0.0
 11
294.424973
 21
805.890235
 31
0.0
  0
LINE
  5
18F
100
AcDbEntity
  8
2
  6
CONTINUOUS
 62
     7
100
AcDbLine
 10
304.424973
 20
765.390235
 30
0.0
 11
298.424973
 21
768.854235
 31
0.0
  0
LINE
  5
190
100
AcDbEntity
  8
2
  6
CONTINUOUS
 62
     7
100
AcDbLine
 10
298.424973
 20
768.854235
 30
0.0
 11
295.924973
 21
805.389435
 31
0.0
  0
LINE
  5
191
100
AcDbEntity
  8
2
  6
CONTINUOUS
 62
     7
100
AcDbLine
 10
310.424973
 20
768.854235
 30
0.0
 11
312.924973
 21
805.390235
 31
0.0
  0
LINE
  5
192
100
AcDbEntity
  8
2
  6
CONTINUOUS
 62
     7
100
AcDbLine
 10
304.424973
 20
765.389435
 30
0.0
 11
310.424973
 21
768.854235
 31
0.0
  0
LINE
  5
193
100
AcDbEntity
  8
2
  6
CONTINUOUS
 62
     7
100
AcDbLine
 10
310.562573
 20
810.390235
 30
0.0
 11
304.424973
 21
810.390235
 31
0.0
  0
LINE
  5
194
100
AcDbEntity
  8
2
  6
CONTINUOUS
 62
     7
100
AcDbLine
 10
310.562573
 20
810.390235
 30
0.0
 11
311.468973
 21
809.483035
 31
0.0
  0
LINE
  5
195
100
AcDbEntity
  8
2
  6
CONTINUOUS
 62
     7
100
AcDbLine
 10
298.287373
 20
810.390235
 30
0.0
 11
304.424973
 21
810.390235
 31
0.0
  0
LINE
  5
196
100
AcDbEntity
  8
2
  6
CONTINUOUS
 62
     7
100
AcDbLine
 10
298.287373
 20
810.390235
 30
0.0
 11
297.380973
 21
809.483035
 31
0.0
  0
LINE
  5
197
100
AcDbEntity
  8
2
  6
CONTINUOUS
 62
     7
100
AcDbLine
 10
306.424973
 20
828.890235
 30
0.0
 11
306.424973
 21
825.890235
 31
0.0
  0
LINE
  5
198
100
AcDbEntity
  8
2
  6
CONTINUOUS
 62
     7
100
AcDbLine
 10
302.424973
 20
828.890235
 30
0.0
 11
302.424973
 21
825.890235
 31
0.0
  0
LINE
  5
199
100
AcDbEntity
  8
2
  6
CONTINUOUS
 62
     7
100
AcDbLine
 10
306.445773
 20
830.889435
 30
0.0
 11
308.466573
 21
827.389435
 31
0.0
  0
LINE
  5
19A
100
AcDbEntity
  8
2
  6
CONTINUOUS
 62
     7
100
AcDbLine
 10
308.466573
 20
827.389435
 30
0.0
 11
306.445773
 21
823.889435
 31
0.0
  0
LINE
  5
19B
100
AcDbEntity
  8
2
  6
CONTINUOUS
 62
     7
100
AcDbLine
 10
302.404173
 20
823.890235
 30
0.0
 11
306.445773
 21
823.890235
 31
0.0
  0
LINE
  5
19C
100
AcDbEntity
  8
2
  6
CONTINUOUS
 62
     7
100
AcDbLine
 10
300.383373
 20
827.389435
 30
0.0
 11
302.404173
 21
823.889435
 31
0.0
  0
LINE
  5
19D
100
AcDbEntity
  8
2
  6
CONTINUOUS
 62
     7
100
AcDbLine
 10
302.404173
 20
830.889435
 30
0.0
 11
300.383373
 21
827.389435
 31
0.0
  0
LINE
  5
19E
100
AcDbEntity
  8
2
  6
CONTINUOUS
 62
     7
100
AcDbLine
 10
306.445773
 20
830.890235
 30
0.0
 11
302.404173
 21
830.890235
 31
0.0
  0
LINE
  5
19F
100
AcDbEntity
  8
2
  6
CONTINUOUS
 62
     7
100
AcDbLine
 10
311.424973
 20
816.390235
 30
0.0
 11
297.424973
 21
816.390235
 31
0.0
  0
LINE
  5
1A0
100
AcDbEntity
  8
2
  6
CONTINUOUS
 62
     7
100
AcDbLine
 10
311.424973
 20
816.390235
 30
0.0
 11
312.424973
 21
815.390235
 31
0.0
  0
LINE
  5
1A1
100
AcDbEntity
  8
2
  6
CONTINUOUS
 62
     7
100
AcDbLine
 10
297.424973
 20
816.390235
 30
0.0
 11
296.424973
 21
815.390235
 31
0.0
  0
LINE
  5
1A2
100
AcDbEntity
  8
2
  6
CONTINUOUS
 62
     7
100
AcDbLine
 10
314.924973
 20
825.390235
 30
0.0
 11
311.424973
 21
825.390235
 31
0.0
  0
LINE
  5
1A3
100
AcDbEntity
  8
2
  6
CONTINUOUS
 62
     7
100
AcDbLine
 10
297.424973
 20
825.390235
 30
0.0
 11
293.924973
 21
825.390235
 31
0.0
  0
LINE
  5
1A4
100
AcDbEntity
  8
2
  6
CONTINUOUS
 62
     7
100
AcDbLine
 10
297.716973
 20
829.390235
 30
0.0
 11
293.924973
 21
829.390235
 31
0.0
  0
LINE
  5
1A5
100
AcDbEntity
  8
2
  6
CONTINUOUS
 62
     7
100
AcDbLine
 10
314.924973
 20
820.390235
 30
0.0
 11
311.424973
 21
820.390235
 31
0.0
  0
LINE
  5
1A6
100
AcDbEntity
  8
2
  6
CONTINUOUS
 62
     7
100
AcDbLine
 10
310.924973
 20
842.390235
 30
0.0
 11
310.924973
 21
837.890235
 31
0.0
  0
LINE
  5
1A7
100
AcDbEntity
  8
2
  6
CONTINUOUS
 62
     7
100
AcDbLine
 10
312.924973
 20
805.389435
 30
0.0
 11
312.424973
 21
808.225435
 31
0.0
  0
LINE
  5
1A8
100
AcDbEntity
  8
2
  6
CONTINUOUS
 62
     7
100
AcDbLine
 10
312.424973
 20
815.390235
 30
0.0
 11
312.424973
 21
808.225435
 31
0.0
  0
LINE
  5
1A9
100
AcDbEntity
  8
2
  6
CONTINUOUS
 62
     7
100
AcDbLine
 10
296.424973
 20
815.390235
 30
0.0
 11
296.424973
 21
808.225435
 31
0.0
  0
LINE
  5
1AA
100
AcDbEntity
  8
2
  6
CONTINUOUS
 62
     7
100
AcDbLine
 10
295.924973
 20
805.389435
 30
0.0
 11
296.424973
 21
808.225435
 31
0.0
  0
LINE
  5
1AB
100
AcDbEntity
  8
2
  6
CONTINUOUS
 62
     7
100
AcDbLine
 10
1113.424973
 20
870.389435
 30
0.0
 11
1113.424973
 21
862.390235
 31
0.0
  0
LINE
  5
1AC
100
AcDbEntity
  8
2
  6
CONTINUOUS
 62
     7
100
AcDbLine
 10
1113.424973
 20
862.390235
 30
0.0
 11
1104.424973
 21
862.390235
 31
0.0
  0
LINE
  5
1AD
100
AcDbEntity
  8
2
  6
CONTINUOUS
 62
     7
100
AcDbLine
 10
1112.772173
 20
855.389435
 30
0.0
 11
1112.955373
 21
862.389435
 31
0.0
  0
LINE
  5
1AE
100
AcDbEntity
  8
2
  6
CONTINUOUS
 62
     7
100
AcDbLine
 10
1111.916973
 20
855.389435
 30
0.0
 11
1112.060173
 21
860.838235
 31
0.0
  0
LINE
  5
1AF
100
AcDbEntity
  8
2
  6
CONTINUOUS
 62
     7
100
AcDbLine
 10
1112.955373
 20
862.389435
 30
0.0
 11
1112.060173
 21
860.838235
 31
0.0
  0
LINE
  5
1B0
100
AcDbEntity
  8
2
  6
CONTINUOUS
 62
     7
100
AcDbLine
 10
1112.914573
 20
860.838235
 30
0.0
 11
1104.424973
 21
860.838235
 31
0.0
  0
LINE
  5
1B1
100
AcDbEntity
  8
2
  6
CONTINUOUS
 62
     7
100
AcDbLine
 10
1095.935373
 20
860.838235
 30
0.0
 11
1104.424973
 21
860.838235
 31
0.0
  0
LINE
  5
1B2
100
AcDbEntity
  8
2
  6
CONTINUOUS
 62
     7
100
AcDbLine
 10
1095.424973
 20
870.389435
 30
0.0
 11
1095.424973
 21
862.390235
 31
0.0
  0
LINE
  5
1B3
100
AcDbEntity
  8
2
  6
CONTINUOUS
 62
     7
100
AcDbLine
 10
1095.424973
 20
862.390235
 30
0.0
 11
1104.424973
 21
862.390235
 31
0.0
  0
LINE
  5
1B4
100
AcDbEntity
  8
2
  6
CONTINUOUS
 62
     7
100
AcDbLine
 10
1096.077773
 20
855.390235
 30
0.0
 11
1095.894573
 21
862.390235
 31
0.0
  0
LINE
  5
1B5
100
AcDbEntity
  8
2
  6
CONTINUOUS
 62
     7
100
AcDbLine
 10
1096.932973
 20
855.390235
 30
0.0
 11
1096.790573
 21
860.838235
 31
0.0
  0
LINE
  5
1B6
100
AcDbEntity
  8
2
  6
CONTINUOUS
 62
     7
100
AcDbLine
 10
1095.894573
 20
862.390235
 30
0.0
 11
1096.790573
 21
860.838235
 31
0.0
  0
LINE
  5
1B7
100
AcDbEntity
  8
2
  6
CENTER
 62
     7
100
AcDbLine
 10
1104.424973
 20
906.739835
 30
0.0
 11
1104.424973
 21
855.739835
 31
0.0
  0
LINE
  5
1B8
100
AcDbEntity
  8
2
  6
CENTER
 62
     7
100
AcDbLine
 10
1121.051373
 20
827.390235
 30
0.0
 11
1090.706573
 21
827.390235
 31
0.0
  0
LINE
  5
1B9
100
AcDbEntity
  8
2
  6
CENTER
 62
     7
100
AcDbLine
 10
1104.424973
 20
859.542235
 30
0.0
 11
1104.424973
 21
759.180635
 31
0.0
  0
LINE
  5
1BA
100
AcDbEntity
  8
2
  6
CONTINUOUS
 62
     7
100
AcDbLine
 10
1114.924973
 20
855.390235
 30
0.0
 11
1093.924973
 21
855.390235
 31
0.0
  0
LINE
  5
1BB
100
AcDbEntity
  8
2
  6
CONTINUOUS
 62
     7
100
AcDbLine
 10
1114.924973
 20
805.390235
 30
0.0
 11
1112.924973
 21
805.390235
 31
0.0
  0
LINE
  5
1BC
100
AcDbEntity
  8
2
  6
CONTINUOUS
 62
     7
100
AcDbLine
 10
1114.924973
 20
855.390235
 30
0.0
 11
1114.924973
 21
805.390235
 31
0.0
  0
LINE
  5
1BD
100
AcDbEntity
  8
2
  6
CONTINUOUS
 62
     7
100
AcDbLine
 10
1093.924973
 20
855.390235
 30
0.0
 11
1093.924973
 21
805.390235
 31
0.0
  0
LINE
  5
1BE
100
AcDbEntity
  8
2
  6
CONTINUOUS
 62
     7
100
AcDbLine
 10
1095.924973
 20
805.390235
 30
0.0
 11
1093.924973
 21
805.390235
 31
0.0
  0
LINE
  5
1BF
100
AcDbEntity
  8
2
  6
CONTINUOUS
 62
     7
100
AcDbLine
 10
1114.924973
 20
829.390235
 30
0.0
 11
1111.424973
 21
829.390235
 31
0.0
  0
LINE
  5
1C0
100
AcDbEntity
  8
2
  6
CONTINUOUS
 62
     7
100
AcDbLine
 10
1110.924973
 20
842.390235
 30
0.0
 11
1097.924973
 21
842.390235
 31
0.0
  0
LINE
  5
1C1
100
AcDbEntity
  8
2
  6
CONTINUOUS
 62
     7
100
AcDbLine
 10
1105.424973
 20
854.890235
 30
0.0
 11
1105.424973
 21
843.390235
 31
0.0
  0
LINE
  5
1C2
100
AcDbEntity
  8
2
  6
CONTINUOUS
 62
     7
100
AcDbLine
 10
1103.424973
 20
854.890235
 30
0.0
 11
1103.424973
 21
843.390235
 31
0.0
  0
LINE
  5
1C3
100
AcDbEntity
  8
2
  6
CONTINUOUS
 62
     7
100
AcDbLine
 10
1097.924973
 20
842.390235
 30
0.0
 11
1097.924973
 21
829.987835
 31
0.0
  0
LINE
  5
1C4
100
AcDbEntity
  8
2
  6
CONTINUOUS
 62
     7
100
AcDbLine
 10
1105.424973
 20
843.390235
 30
0.0
 11
1103.424973
 21
843.390235
 31
0.0
  0
LINE
  5
1C5
100
AcDbEntity
  8
2
  6
CONTINUOUS
 62
     7
100
AcDbLine
 10
1110.924973
 20
842.390235
 30
0.0
 11
1105.424973
 21
843.390235
 31
0.0
  0
LINE
  5
1C6
100
AcDbEntity
  8
2
  6
CONTINUOUS
 62
     7
100
AcDbLine
 10
1103.424973
 20
843.390235
 30
0.0
 11
1097.924973
 21
842.390235
 31
0.0
  0
LINE
  5
1C7
100
AcDbEntity
  8
2
  6
CONTINUOUS
 62
     7
100
AcDbLine
 10
1114.424973
 20
854.890235
 30
0.0
 11
1114.424973
 21
829.390235
 31
0.0
  0
LINE
  5
1C8
100
AcDbEntity
  8
2
  6
CONTINUOUS
 62
     7
100
AcDbLine
 10
1114.424973
 20
820.390235
 30
0.0
 11
1114.424973
 21
805.890235
 31
0.0
  0
LINE
  5
1C9
100
AcDbEntity
  8
2
  6
CONTINUOUS
 62
     7
100
AcDbLine
 10
1094.424973
 20
825.390235
 30
0.0
 11
1094.424973
 21
805.890235
 31
0.0
  0
LINE
  5
1CA
100
AcDbEntity
  8
2
  6
CONTINUOUS
 62
     7
100
AcDbLine
 10
1094.424973
 20
854.890235
 30
0.0
 11
1094.424973
 21
829.390235
 31
0.0
  0
LINE
  5
1CB
100
AcDbEntity
  8
2
  6
CONTINUOUS
 62
     7
100
AcDbLine
 10
1105.424973
 20
854.890235
 30
0.0
 11
1103.424973
 21
854.890235
 31
0.0
  0
LINE
  5
1CC
100
AcDbEntity
  8
2
  6
CONTINUOUS
 62
     7
100
AcDbLine
 10
1114.924973
 20
805.890235
 30
0.0
 11
1114.424973
 21
805.890235
 31
0.0
  0
LINE
  5
1CD
100
AcDbEntity
  8
2
  6
CONTINUOUS
 62
     7
100
AcDbLine
 10
1114.424973
 20
805.890235
 30
0.0
 11
1112.924973
 21
805.390235
 31
0.0
  0
LINE
  5
1CE
100
AcDbEntity
  8
2
  6
CONTINUOUS
 62
     7
100
AcDbLine
 10
1114.924973
 20
854.890235
 30
0.0
 11
1114.424973
 21
854.890235
 31
0.0
  0
LINE
  5
1CF
100
AcDbEntity
  8
2
  6
CONTINUOUS
 62
     7
100
AcDbLine
 10
1094.424973
 20
854.890235
 30
0.0
 11
1093.924973
 21
854.890235
 31
0.0
  0
LINE
  5
1D0
100
AcDbEntity
  8
2
  6
CONTINUOUS
 62
     7
100
AcDbLine
 10
1094.424973
 20
805.890235
 30
0.0
 11
1093.924973
 21
805.890235
 31
0.0
  0
LINE
  5
1D1
100
AcDbEntity
  8
2
  6
CONTINUOUS
 62
     7
100
AcDbLine
 10
1095.924973
 20
805.390235
 30
0.0
 11
1094.424973
 21
805.890235
 31
0.0
  0
LINE
  5
1D2
100
AcDbEntity
  8
2
  6
CONTINUOUS
 62
     7
100
AcDbLine
 10
1104.424973
 20
765.390235
 30
0.0
 11
1098.424973
 21
768.854235
 31
0.0
  0
LINE
  5
1D3
100
AcDbEntity
  8
2
  6
CONTINUOUS
 62
     7
100
AcDbLine
 10
1098.424973
 20
768.854235
 30
0.0
 11
1095.924973
 21
805.389435
 31
0.0
  0
LINE
  5
1D4
100
AcDbEntity
  8
2
  6
CONTINUOUS
 62
     7
100
AcDbLine
 10
1110.424973
 20
768.854235
 30
0.0
 11
1112.924973
 21
805.389435
 31
0.0
  0
LINE
  5
1D5
100
AcDbEntity
  8
2
  6
CONTINUOUS
 62
     7
100
AcDbLine
 10
1104.424973
 20
765.389435
 30
0.0
 11
1110.424973
 21
768.854235
 31
0.0
  0
LINE
  5
1D6
100
AcDbEntity
  8
2
  6
CONTINUOUS
 62
     7
100
AcDbLine
 10
1110.562573
 20
810.390235
 30
0.0
 11
1104.424973
 21
810.390235
 31
0.0
  0
LINE
  5
1D7
100
AcDbEntity
  8
2
  6
CONTINUOUS
 62
     7
100
AcDbLine
 10
1110.562573
 20
810.390235
 30
0.0
 11
1111.468973
 21
809.483035
 31
0.0
  0
LINE
  5
1D8
100
AcDbEntity
  8
2
  6
CONTINUOUS
 62
     7
100
AcDbLine
 10
1098.287373
 20
810.390235
 30
0.0
 11
1104.424973
 21
810.390235
 31
0.0
  0
LINE
  5
1D9
100
AcDbEntity
  8
2
  6
CONTINUOUS
 62
     7
100
AcDbLine
 10
1098.287373
 20
810.390235
 30
0.0
 11
1097.380973
 21
809.483035
 31
0.0
  0
LINE
  5
1DA
100
AcDbEntity
  8
2
  6
CONTINUOUS
 62
     7
100
AcDbLine
 10
1106.424973
 20
828.890235
 30
0.0
 11
1106.424973
 21
825.890235
 31
0.0
  0
LINE
  5
1DB
100
AcDbEntity
  8
2
  6
CONTINUOUS
 62
     7
100
AcDbLine
 10
1102.424973
 20
828.890235
 30
0.0
 11
1102.424973
 21
825.890235
 31
0.0
  0
LINE
  5
1DC
100
AcDbEntity
  8
2
  6
CONTINUOUS
 62
     7
100
AcDbLine
 10
1106.445773
 20
830.890235
 30
0.0
 11
1108.466573
 21
827.389435
 31
0.0
  0
LINE
  5
1DD
100
AcDbEntity
  8
2
  6
CONTINUOUS
 62
     7
100
AcDbLine
 10
1108.466573
 20
827.390235
 30
0.0
 11
1106.445773
 21
823.890235
 31
0.0
  0
LINE
  5
1DE
100
AcDbEntity
  8
2
  6
CONTINUOUS
 62
     7
100
AcDbLine
 10
1102.404173
 20
823.890235
 30
0.0
 11
1106.445773
 21
823.890235
 31
0.0
  0
LINE
  5
1DF
100
AcDbEntity
  8
2
  6
CONTINUOUS
 62
     7
100
AcDbLine
 10
1100.383373
 20
827.390235
 30
0.0
 11
1102.404173
 21
823.889435
 31
0.0
  0
LINE
  5
1E0
100
AcDbEntity
  8
2
  6
CONTINUOUS
 62
     7
100
AcDbLine
 10
1102.404173
 20
830.890235
 30
0.0
 11
1100.383373
 21
827.390235
 31
0.0
  0
LINE
  5
1E1
100
AcDbEntity
  8
2
  6
CONTINUOUS
 62
     7
100
AcDbLine
 10
1106.445773
 20
830.890235
 30
0.0
 11
1102.404173
 21
830.890235
 31
0.0
  0
LINE
  5
1E2
100
AcDbEntity
  8
2
  6
CONTINUOUS
 62
     7
100
AcDbLine
 10
1111.424973
 20
816.390235
 30
0.0
 11
1097.424973
 21
816.390235
 31
0.0
  0
LINE
  5
1E3
100
AcDbEntity
  8
2
  6
CONTINUOUS
 62
     7
100
AcDbLine
 10
1111.424973
 20
816.390235
 30
0.0
 11
1112.424973
 21
815.390235
 31
0.0
  0
LINE
  5
1E4
100
AcDbEntity
  8
2
  6
CONTINUOUS
 62
     7
100
AcDbLine
 10
1097.424973
 20
816.390235
 30
0.0
 11
1096.424973
 21
815.390235
 31
0.0
  0
LINE
  5
1E5
100
AcDbEntity
  8
2
  6
CONTINUOUS
 62
     7
100
AcDbLine
 10
1114.924973
 20
825.390235
 30
0.0
 11
1111.424973
 21
825.390235
 31
0.0
  0
LINE
  5
1E6
100
AcDbEntity
  8
2
  6
CONTINUOUS
 62
     7
100
AcDbLine
 10
1097.424973
 20
825.390235
 30
0.0
 11
1093.924973
 21
825.390235
 31
0.0
  0
LINE
  5
1E7
100
AcDbEntity
  8
2
  6
CONTINUOUS
 62
     7
100
AcDbLine
 10
1097.716973
 20
829.390235
 30
0.0
 11
1093.924973
 21
829.390235
 31
0.0
  0
LINE
  5
1E8
100
AcDbEntity
  8
2
  6
CONTINUOUS
 62
     7
100
AcDbLine
 10
1114.924973
 20
820.390235
 30
0.0
 11
1111.424973
 21
820.390235
 31
0.0
  0
LINE
  5
1E9
100
AcDbEntity
  8
2
  6
CONTINUOUS
 62
     7
100
AcDbLine
 10
1110.924973
 20
842.390235
 30
0.0
 11
1110.924973
 21
837.890235
 31
0.0
  0
LINE
  5
1EA
100
AcDbEntity
  8
2
  6
CONTINUOUS
 62
     7
100
AcDbLine
 10
1112.924973
 20
805.390235
 30
0.0
 11
1112.424973
 21
808.225435
 31
0.0
  0
LINE
  5
1EB
100
AcDbEntity
  8
2
  6
CONTINUOUS
 62
     7
100
AcDbLine
 10
1112.424973
 20
815.390235
 30
0.0
 11
1112.424973
 21
808.225435
 31
0.0
  0
LINE
  5
1EC
100
AcDbEntity
  8
2
  6
CONTINUOUS
 62
     7
100
AcDbLine
 10
1096.424973
 20
815.390235
 30
0.0
 11
1096.424973
 21
808.225435
 31
0.0
  0
LINE
  5
1ED
100
AcDbEntity
  8
2
  6
CONTINUOUS
 62
     7
100
AcDbLine
 10
1095.924973
 20
805.390235
 30
0.0
 11
1096.424973
 21
808.225435
 31
0.0
  0
LINE
  5
1EE
100
AcDbEntity
  8
2
  6
CONTINUOUS
 62
     7
100
AcDbLine
 10
1113.424973
 20
867.390235
 30
0.0
 11
1116.424973
 21
870.390235
 31
0.0
  0
LINE
  5
1EF
100
AcDbEntity
  8
2
  6
CONTINUOUS
 62
     7
100
AcDbLine
 10
1095.424973
 20
867.390235
 30
0.0
 11
1092.424973
 21
870.390235
 31
0.0
  0
LINE
  5
1F0
100
AcDbEntity
  8
2
  6
CONTINUOUS
 62
     7
100
AcDbLine
 10
904.424973
 20
870.389435
 30
0.0
 11
713.424973
 21
870.389435
 31
0.0
  0
LINE
  5
1F1
100
AcDbEntity
  8
2
  6
CONTINUOUS
 62
     7
100
AcDbLine
 10
695.424973
 20
870.389435
 30
0.0
 11
503.771373
 21
870.389435
 31
0.0
  0
LINE
  5
1F2
100
AcDbEntity
  8
2
  6
CONTINUOUS
 62
     7
100
AcDbLine
 10
713.424973
 20
870.389435
 30
0.0
 11
713.424973
 21
862.390235
 31
0.0
  0
LINE
  5
1F3
100
AcDbEntity
  8
2
  6
CONTINUOUS
 62
     7
100
AcDbLine
 10
713.424973
 20
862.390235
 30
0.0
 11
704.424973
 21
862.390235
 31
0.0
  0
LINE
  5
1F4
100
AcDbEntity
  8
2
  6
CONTINUOUS
 62
     7
100
AcDbLine
 10
712.772173
 20
855.389435
 30
0.0
 11
712.955373
 21
862.389435
 31
0.0
  0
LINE
  5
1F5
100
AcDbEntity
  8
2
  6
CONTINUOUS
 62
     7
100
AcDbLine
 10
711.916973
 20
855.390235
 30
0.0
 11
712.059373
 21
860.838235
 31
0.0
  0
LINE
  5
1F6
100
AcDbEntity
  8
2
  6
CONTINUOUS
 62
     7
100
AcDbLine
 10
712.955373
 20
862.389435
 30
0.0
 11
712.060173
 21
860.838235
 31
0.0
  0
LINE
  5
1F7
100
AcDbEntity
  8
2
  6
CONTINUOUS
 62
     7
100
AcDbLine
 10
712.914573
 20
860.838235
 30
0.0
 11
704.424973
 21
860.838235
 31
0.0
  0
LINE
  5
1F8
100
AcDbEntity
  8
2
  6
CONTINUOUS
 62
     7
100
AcDbLine
 10
695.935373
 20
860.838235
 30
0.0
 11
704.424973
 21
860.838235
 31
0.0
  0
LINE
  5
1F9
100
AcDbEntity
  8
2
  6
CONTINUOUS
 62
     7
100
AcDbLine
 10
695.424973
 20
870.389435
 30
0.0
 11
695.424973
 21
862.390235
 31
0.0
  0
LINE
  5
1FA
100
AcDbEntity
  8
2
  6
CONTINUOUS
 62
     7
100
AcDbLine
 10
695.424973
 20
862.390235
 30
0.0
 11
704.424973
 21
862.390235
 31
0.0
  0
LINE
  5
1FB
100
AcDbEntity
  8
2
  6
CONTINUOUS
 62
     7
100
AcDbLine
 10
696.077773
 20
855.390235
 30
0.0
 11
695.894573
 21
862.389435
 31
0.0
  0
LINE
  5
1FC
100
AcDbEntity
  8
2
  6
CONTINUOUS
 62
     7
100
AcDbLine
 10
696.932973
 20
855.389435
 30
0.0
 11
696.790573
 21
860.838235
 31
0.0
  0
LINE
  5
1FD
100
AcDbEntity
  8
2
  6
CONTINUOUS
 62
     7
100
AcDbLine
 10
695.894573
 20
862.390235
 30
0.0
 11
696.790573
 21
860.838235
 31
0.0
  0
LINE
  5
1FE
100
AcDbEntity
  8
2
  6
CONTINUOUS
 62
     7
100
AcDbLine
 10
695.424973
 20
867.390235
 30
0.0
 11
692.424973
 21
870.390235
 31
0.0
  0
LINE
  5
1FF
100
AcDbEntity
  8
2
  6
CONTINUOUS
 62
     7
100
AcDbLine
 10
713.424973
 20
867.389435
 30
0.0
 11
716.424973
 21
870.389435
 31
0.0
  0
LINE
  5
200
100
AcDbEntity
  8
2
  6
CENTER
 62
     7
100
AcDbLine
 10
704.424973
 20
906.739835
 30
0.0
 11
704.424973
 21
855.739835
 31
0.0
  0
LINE
  5
201
100
AcDbEntity
  8
2
  6
CENTER
 62
     7
100
AcDbLine
 10
721.051373
 20
827.390235
 30
0.0
 11
690.706573
 21
827.390235
 31
0.0
  0
LINE
  5
202
100
AcDbEntity
  8
2
  6
CENTER
 62
     7
100
AcDbLine
 10
704.424973
 20
859.542235
 30
0.0
 11
704.424973
 21
759.180635
 31
0.0
  0
LINE
  5
203
100
AcDbEntity
  8
2
  6
CONTINUOUS
 62
     7
100
AcDbLine
 10
714.924973
 20
855.390235
 30
0.0
 11
693.924973
 21
855.390235
 31
0.0
  0
LINE
  5
204
100
AcDbEntity
  8
2
  6
CONTINUOUS
 62
     7
100
AcDbLine
 10
714.924973
 20
805.390235
 30
0.0
 11
712.924973
 21
805.390235
 31
0.0
  0
LINE
  5
205
100
AcDbEntity
  8
2
  6
CONTINUOUS
 62
     7
100
AcDbLine
 10
714.924973
 20
855.390235
 30
0.0
 11
714.924973
 21
805.390235
 31
0.0
  0
LINE
  5
206
100
AcDbEntity
  8
2
  6
CONTINUOUS
 62
     7
100
AcDbLine
 10
693.924973
 20
855.390235
 30
0.0
 11
693.924973
 21
805.390235
 31
0.0
  0
LINE
  5
207
100
AcDbEntity
  8
2
  6
CONTINUOUS
 62
     7
100
AcDbLine
 10
695.924973
 20
805.390235
 30
0.0
 11
693.924973
 21
805.390235
 31
0.0
  0
LINE
  5
208
100
AcDbEntity
  8
2
  6
CONTINUOUS
 62
     7
100
AcDbLine
 10
714.924973
 20
829.390235
 30
0.0
 11
711.424973
 21
829.390235
 31
0.0
  0
LINE
  5
209
100
AcDbEntity
  8
2
  6
CONTINUOUS
 62
     7
100
AcDbLine
 10
710.924973
 20
842.390235
 30
0.0
 11
697.924973
 21
842.390235
 31
0.0
  0
LINE
  5
20A
100
AcDbEntity
  8
2
  6
CONTINUOUS
 62
     7
100
AcDbLine
 10
705.424973
 20
854.890235
 30
0.0
 11
705.424973
 21
843.390235
 31
0.0
  0
LINE
  5
20B
100
AcDbEntity
  8
2
  6
CONTINUOUS
 62
     7
100
AcDbLine
 10
703.424973
 20
854.890235
 30
0.0
 11
703.424973
 21
843.390235
 31
0.0
  0
LINE
  5
20C
100
AcDbEntity
  8
2
  6
CONTINUOUS
 62
     7
100
AcDbLine
 10
697.924973
 20
842.390235
 30
0.0
 11
697.924973
 21
829.987835
 31
0.0
  0
LINE
  5
20D
100
AcDbEntity
  8
2
  6
CONTINUOUS
 62
     7
100
AcDbLine
 10
705.424973
 20
843.390235
 30
0.0
 11
703.424973
 21
843.390235
 31
0.0
  0
LINE
  5
20E
100
AcDbEntity
  8
2
  6
CONTINUOUS
 62
     7
100
AcDbLine
 10
710.924973
 20
842.390235
 30
0.0
 11
705.424973
 21
843.390235
 31
0.0
  0
LINE
  5
20F
100
AcDbEntity
  8
2
  6
CONTINUOUS
 62
     7
100
AcDbLine
 10
703.424973
 20
843.390235
 30
0.0
 11
697.924973
 21
842.390235
 31
0.0
  0
LINE
  5
210
100
AcDbEntity
  8
2
  6
CONTINUOUS
 62
     7
100
AcDbLine
 10
714.424973
 20
854.890235
 30
0.0
 11
714.424973
 21
829.390235
 31
0.0
  0
LINE
  5
211
100
AcDbEntity
  8
2
  6
CONTINUOUS
 62
     7
100
AcDbLine
 10
714.424973
 20
820.390235
 30
0.0
 11
714.424973
 21
805.890235
 31
0.0
  0
LINE
  5
212
100
AcDbEntity
  8
2
  6
CONTINUOUS
 62
     7
100
AcDbLine
 10
694.424973
 20
825.390235
 30
0.0
 11
694.424973
 21
805.890235
 31
0.0
  0
LINE
  5
213
100
AcDbEntity
  8
2
  6
CONTINUOUS
 62
     7
100
AcDbLine
 10
694.424973
 20
854.890235
 30
0.0
 11
694.424973
 21
829.390235
 31
0.0
  0
LINE
  5
214
100
AcDbEntity
  8
2
  6
CONTINUOUS
 62
     7
100
AcDbLine
 10
705.424973
 20
854.890235
 30
0.0
 11
703.424973
 21
854.890235
 31
0.0
  0
LINE
  5
215
100
AcDbEntity
  8
2
  6
CONTINUOUS
 62
     7
100
AcDbLine
 10
714.924973
 20
805.890235
 30
0.0
 11
714.424973
 21
805.890235
 31
0.0
  0
LINE
  5
216
100
AcDbEntity
  8
2
  6
CONTINUOUS
 62
     7
100
AcDbLine
 10
714.424973
 20
805.889435
 30
0.0
 11
712.924973
 21
805.389435
 31
0.0
  0
LINE
  5
217
100
AcDbEntity
  8
2
  6
CONTINUOUS
 62
     7
100
AcDbLine
 10
714.924973
 20
854.890235
 30
0.0
 11
714.424973
 21
854.890235
 31
0.0
  0
LINE
  5
218
100
AcDbEntity
  8
2
  6
CONTINUOUS
 62
     7
100
AcDbLine
 10
694.424973
 20
854.890235
 30
0.0
 11
693.924973
 21
854.890235
 31
0.0
  0
LINE
  5
219
100
AcDbEntity
  8
2
  6
CONTINUOUS
 62
     7
100
AcDbLine
 10
694.424973
 20
805.890235
 30
0.0
 11
693.924973
 21
805.890235
 31
0.0
  0
LINE
  5
21A
100
AcDbEntity
  8
2
  6
CONTINUOUS
 62
     7
100
AcDbLine
 10
695.924973
 20
805.390235
 30
0.0
 11
694.424973
 21
805.890235
 31
0.0
  0
LINE
  5
21B
100
AcDbEntity
  8
2
  6
CONTINUOUS
 62
     7
100
AcDbLine
 10
704.424973
 20
765.390235
 30
0.0
 11
698.424973
 21
768.854235
 31
0.0
  0
LINE
  5
21C
100
AcDbEntity
  8
2
  6
CONTINUOUS
 62
     7
100
AcDbLine
 10
698.424973
 20
768.854235
 30
0.0
 11
695.924973
 21
805.390235
 31
0.0
  0
LINE
  5
21D
100
AcDbEntity
  8
2
  6
CONTINUOUS
 62
     7
100
AcDbLine
 10
710.424973
 20
768.854235
 30
0.0
 11
712.924973
 21
805.390235
 31
0.0
  0
LINE
  5
21E
100
AcDbEntity
  8
2
  6
CONTINUOUS
 62
     7
100
AcDbLine
 10
704.424973
 20
765.389435
 30
0.0
 11
710.424973
 21
768.854235
 31
0.0
  0
LINE
  5
21F
100
AcDbEntity
  8
2
  6
CONTINUOUS
 62
     7
100
AcDbLine
 10
710.562573
 20
810.390235
 30
0.0
 11
704.424973
 21
810.390235
 31
0.0
  0
LINE
  5
220
100
AcDbEntity
  8
2
  6
CONTINUOUS
 62
     7
100
AcDbLine
 10
710.562573
 20
810.389435
 30
0.0
 11
711.468973
 21
809.483035
 31
0.0
  0
LINE
  5
221
100
AcDbEntity
  8
2
  6
CONTINUOUS
 62
     7
100
AcDbLine
 10
698.287373
 20
810.390235
 30
0.0
 11
704.424973
 21
810.390235
 31
0.0
  0
LINE
  5
222
100
AcDbEntity
  8
2
  6
CONTINUOUS
 62
     7
100
AcDbLine
 10
698.287373
 20
810.389435
 30
0.0
 11
697.380973
 21
809.483035
 31
0.0
  0
LINE
  5
223
100
AcDbEntity
  8
2
  6
CONTINUOUS
 62
     7
100
AcDbLine
 10
706.424973
 20
828.890235
 30
0.0
 11
706.424973
 21
825.890235
 31
0.0
  0
LINE
  5
224
100
AcDbEntity
  8
2
  6
CONTINUOUS
 62
     7
100
AcDbLine
 10
702.424973
 20
828.890235
 30
0.0
 11
702.424973
 21
825.890235
 31
0.0
  0
LINE
  5
225
100
AcDbEntity
  8
2
  6
CONTINUOUS
 62
     7
100
AcDbLine
 10
706.445773
 20
830.889435
 30
0.0
 11
708.466573
 21
827.389435
 31
0.0
  0
LINE
  5
226
100
AcDbEntity
  8
2
  6
CONTINUOUS
 62
     7
100
AcDbLine
 10
708.466573
 20
827.390235
 30
0.0
 11
706.445773
 21
823.890235
 31
0.0
  0
LINE
  5
227
100
AcDbEntity
  8
2
  6
CONTINUOUS
 62
     7
100
AcDbLine
 10
702.404173
 20
823.890235
 30
0.0
 11
706.445773
 21
823.890235
 31
0.0
  0
LINE
  5
228
100
AcDbEntity
  8
2
  6
CONTINUOUS
 62
     7
100
AcDbLine
 10
700.383373
 20
827.389435
 30
0.0
 11
702.404173
 21
823.889435
 31
0.0
  0
LINE
  5
229
100
AcDbEntity
  8
2
  6
CONTINUOUS
 62
     7
100
AcDbLine
 10
702.404173
 20
830.889435
 30
0.0
 11
700.383373
 21
827.389435
 31
0.0
  0
LINE
  5
22A
100
AcDbEntity
  8
2
  6
CONTINUOUS
 62
     7
100
AcDbLine
 10
706.445773
 20
830.890235
 30
0.0
 11
702.404173
 21
830.890235
 31
0.0
  0
LINE
  5
22B
100
AcDbEntity
  8
2
  6
CONTINUOUS
 62
     7
100
AcDbLine
 10
711.424973
 20
816.390235
 30
0.0
 11
697.424973
 21
816.390235
 31
0.0
  0
LINE
  5
22C
100
AcDbEntity
  8
2
  6
CONTINUOUS
 62
     7
100
AcDbLine
 10
711.424973
 20
816.390235
 30
0.0
 11
712.424973
 21
815.390235
 31
0.0
  0
LINE
  5
22D
100
AcDbEntity
  8
2
  6
CONTINUOUS
 62
     7
100
AcDbLine
 10
697.424973
 20
816.390235
 30
0.0
 11
696.424973
 21
815.390235
 31
0.0
  0
LINE
  5
22E
100
AcDbEntity
  8
2
  6
CONTINUOUS
 62
     7
100
AcDbLine
 10
714.924973
 20
825.390235
 30
0.0
 11
711.424973
 21
825.390235
 31
0.0
  0
LINE
  5
22F
100
AcDbEntity
  8
2
  6
CONTINUOUS
 62
     7
100
AcDbLine
 10
697.424973
 20
825.390235
 30
0.0
 11
693.924973
 21
825.390235
 31
0.0
  0
LINE
  5
230
100
AcDbEntity
  8
2
  6
CONTINUOUS
 62
     7
100
AcDbLine
 10
697.716973
 20
829.390235
 30
0.0
 11
693.924973
 21
829.390235
 31
0.0
  0
LINE
  5
231
100
AcDbEntity
  8
2
  6
CONTINUOUS
 62
     7
100
AcDbLine
 10
714.924973
 20
820.390235
 30
0.0
 11
711.424973
 21
820.390235
 31
0.0
  0
LINE
  5
232
100
AcDbEntity
  8
2
  6
CONTINUOUS
 62
     7
100
AcDbLine
 10
711.424973
 20
820.390235
 30
0.0
 11
711.424973
 21
816.390235
 31
0.0
  0
LINE
  5
233
100
AcDbEntity
  8
2
  6
CONTINUOUS
 62
     7
100
AcDbLine
 10
710.924973
 20
842.390235
 30
0.0
 11
710.924973
 21
837.890235
 31
0.0
  0
LINE
  5
234
100
AcDbEntity
  8
2
  6
CONTINUOUS
 62
     7
100
AcDbLine
 10
712.924973
 20
805.390235
 30
0.0
 11
712.424973
 21
808.225435
 31
0.0
  0
LINE
  5
235
100
AcDbEntity
  8
2
  6
CONTINUOUS
 62
     7
100
AcDbLine
 10
712.424973
 20
815.390235
 30
0.0
 11
712.424973
 21
808.225435
 31
0.0
  0
LINE
  5
236
100
AcDbEntity
  8
2
  6
CONTINUOUS
 62
     7
100
AcDbLine
 10
696.424973
 20
815.390235
 30
0.0
 11
696.424973
 21
808.225435
 31
0.0
  0
LINE
  5
237
100
AcDbEntity
  8
2
  6
CONTINUOUS
 62
     7
100
AcDbLine
 10
695.924973
 20
805.389435
 30
0.0
 11
696.424973
 21
808.225435
 31
0.0
  0
LINE
  5
238
100
AcDbEntity
  8
2
  6
CONTINUOUS
 62
     7
100
AcDbLine
 10
503.771373
 20
870.389435
 30
0.0
 11
313.424973
 21
870.389435
 31
0.0
  0
LINE
  5
239
100
AcDbEntity
  8
2
  6
CONTINUOUS
 62
     7
100
AcDbLine
 10
1013.424973
 20
892.090235
 30
0.0
 11
1008.424973
 21
892.090235
 31
0.0
  0
LINE
  5
23A
100
AcDbEntity
  8
2
  6
CONTINUOUS
 62
     7
100
AcDbLine
 10
183.924973
 20
870.390235
 30
0.0
 11
183.924973
 21
720.390235
 31
0.0
  0
LINE
  5
23B
100
AcDbEntity
  8
2
  6
CONTINUOUS
 62
     7
100
AcDbLine
 10
215.924973
 20
870.390235
 30
0.0
 11
215.924973
 21
720.390235
 31
0.0
  0
LINE
  5
23C
100
AcDbEntity
  8
2
  6
CONTINUOUS
 62
     7
100
AcDbLine
 10
183.924973
 20
867.389435
 30
0.0
 11
215.924973
 21
867.389435
 31
0.0
  0
LINE
  5
23D
100
AcDbEntity
  8
2
  6
CONTINUOUS
 62
     7
100
AcDbLine
 10
185.924973
 20
865.389435
 30
0.0
 11
185.924973
 21
764.207835
 31
0.0
  0
LINE
  5
23E
100
AcDbEntity
  8
2
  6
CONTINUOUS
 62
     7
100
AcDbLine
 10
185.924973
 20
764.207835
 30
0.0
 11
194.924973
 21
772.390235
 31
0.0
  0
LINE
  5
23F
100
AcDbEntity
  8
2
  6
CONTINUOUS
 62
     7
100
AcDbLine
 10
185.924973
 20
780.571835
 30
0.0
 11
194.924973
 21
772.390235
 31
0.0
  0
LINE
  5
240
100
AcDbEntity
  8
2
  6
CONTINUOUS
 62
     7
100
AcDbLine
 10
183.924973
 20
764.207835
 30
0.0
 11
185.924973
 21
764.207835
 31
0.0
  0
LINE
  5
241
100
AcDbEntity
  8
2
  6
CONTINUOUS
 62
     7
100
AcDbLine
 10
185.924973
 20
865.389435
 30
0.0
 11
212.175373
 21
865.389435
 31
0.0
  0
LINE
  5
242
100
AcDbEntity
  8
2
  6
CONTINUOUS
 62
     7
100
AcDbLine
 10
185.924973
 20
865.389435
 30
0.0
 11
183.924973
 21
867.389435
 31
0.0
  0
LINE
  5
243
100
AcDbEntity
  8
2
  6
CONTINUOUS
 62
     7
100
AcDbLine
 10
201.924973
 20
854.390235
 30
0.0
 11
206.924973
 21
854.390235
 31
0.0
  0
LINE
  5
244
100
AcDbEntity
  8
2
  6
CONTINUOUS
 62
     7
100
AcDbLine
 10
212.175373
 20
867.389435
 30
0.0
 11
212.175373
 21
865.389435
 31
0.0
  0
LINE
  5
245
100
AcDbEntity
  8
2
  6
CONTINUOUS
 62
     7
100
AcDbLine
 10
196.675373
 20
867.389435
 30
0.0
 11
196.675373
 21
865.389435
 31
0.0
  0
LINE
  5
246
100
AcDbEntity
  8
2
  6
CONTINUOUS
 62
     7
100
AcDbLine
 10
201.424973
 20
860.390235
 30
0.0
 11
201.424973
 21
854.889435
 31
0.0
  0
LINE
  5
247
100
AcDbEntity
  8
2
  6
CONTINUOUS
 62
     7
100
AcDbLine
 10
207.424973
 20
860.390235
 30
0.0
 11
207.424973
 21
854.889435
 31
0.0
  0
LINE
  5
248
100
AcDbEntity
  8
2
  6
CONTINUOUS
 62
     7
100
AcDbLine
 10
199.424973
 20
865.389435
 30
0.0
 11
199.424973
 21
860.889435
 31
0.0
  0
LINE
  5
249
100
AcDbEntity
  8
2
  6
CONTINUOUS
 62
     7
100
AcDbLine
 10
199.924973
 20
860.390235
 30
0.0
 11
204.424973
 21
860.390235
 31
0.0
  0
LINE
  5
24A
100
AcDbEntity
  8
2
  6
CONTINUOUS
 62
     7
100
AcDbLine
 10
201.924973
 20
865.389435
 30
0.0
 11
201.924973
 21
860.889435
 31
0.0
  0
LINE
  5
24B
100
AcDbEntity
  8
2
  6
CONTINUOUS
 62
     7
100
AcDbLine
 10
199.424973
 20
860.890235
 30
0.0
 11
199.924973
 21
860.390235
 31
0.0
  0
LINE
  5
24C
100
AcDbEntity
  8
2
  6
CONTINUOUS
 62
     7
100
AcDbLine
 10
209.424973
 20
865.389435
 30
0.0
 11
209.424973
 21
860.889435
 31
0.0
  0
LINE
  5
24D
100
AcDbEntity
  8
2
  6
CONTINUOUS
 62
     7
100
AcDbLine
 10
209.424973
 20
860.890235
 30
0.0
 11
208.924973
 21
860.390235
 31
0.0
  0
LINE
  5
24E
100
AcDbEntity
  8
2
  6
CONTINUOUS
 62
     7
100
AcDbLine
 10
208.924973
 20
860.390235
 30
0.0
 11
204.424973
 21
860.390235
 31
0.0
  0
LINE
  5
24F
100
AcDbEntity
  8
2
  6
CONTINUOUS
 62
     7
100
AcDbLine
 10
206.924973
 20
865.389435
 30
0.0
 11
206.924973
 21
860.889435
 31
0.0
  0
LINE
  5
250
100
AcDbEntity
  8
2
  6
CONTINUOUS
 62
     7
100
AcDbLine
 10
201.424973
 20
854.890235
 30
0.0
 11
201.924973
 21
854.390235
 31
0.0
  0
LINE
  5
251
100
AcDbEntity
  8
2
  6
CONTINUOUS
 62
     7
100
AcDbLine
 10
206.924973
 20
854.390235
 30
0.0
 11
207.424973
 21
854.890235
 31
0.0
  0
LINE
  5
252
100
AcDbEntity
  8
2
  6
CENTER
 62
     7
100
AcDbLine
 10
204.424973
 20
898.889435
 30
0.0
 11
204.424973
 21
843.669435
 31
0.0
  0
LINE
  5
253
100
AcDbEntity
  8
2
  6
CONTINUOUS
 62
     7
100
AcDbLine
 10
1133.924973
 20
870.390235
 30
0.0
 11
1133.924973
 21
720.390235
 31
0.0
  0
LINE
  5
254
100
AcDbEntity
  8
2
  6
CONTINUOUS
 62
     7
100
AcDbLine
 10
1165.924973
 20
870.390235
 30
0.0
 11
1165.924973
 21
720.390235
 31
0.0
  0
LINE
  5
255
100
AcDbEntity
  8
2
  6
CONTINUOUS
 62
     7
100
AcDbLine
 10
1133.924973
 20
867.389435
 30
0.0
 11
1165.924973
 21
867.389435
 31
0.0
  0
LINE
  5
256
100
AcDbEntity
  8
2
  6
CONTINUOUS
 62
     7
100
AcDbLine
 10
1135.924973
 20
865.389435
 30
0.0
 11
1135.924973
 21
764.207835
 31
0.0
  0
LINE
  5
257
100
AcDbEntity
  8
2
  6
CONTINUOUS
 62
     7
100
AcDbLine
 10
1135.924973
 20
764.207835
 30
0.0
 11
1144.924973
 21
772.389435
 31
0.0
  0
LINE
  5
258
100
AcDbEntity
  8
2
  6
CONTINUOUS
 62
     7
100
AcDbLine
 10
1135.924973
 20
780.571835
 30
0.0
 11
1144.924973
 21
772.390235
 31
0.0
  0
LINE
  5
259
100
AcDbEntity
  8
2
  6
CONTINUOUS
 62
     7
100
AcDbLine
 10
1133.924973
 20
764.207835
 30
0.0
 11
1135.924973
 21
764.207835
 31
0.0
  0
LINE
  5
25A
100
AcDbEntity
  8
2
  6
CONTINUOUS
 62
     7
100
AcDbLine
 10
1135.924973
 20
865.389435
 30
0.0
 11
1162.175373
 21
865.389435
 31
0.0
  0
LINE
  5
25B
100
AcDbEntity
  8
2
  6
CONTINUOUS
 62
     7
100
AcDbLine
 10
1135.924973
 20
865.389435
 30
0.0
 11
1133.924973
 21
867.390235
 31
0.0
  0
LINE
  5
25C
100
AcDbEntity
  8
2
  6
CONTINUOUS
 62
     7
100
AcDbLine
 10
1151.924973
 20
854.390235
 30
0.0
 11
1156.924973
 21
854.390235
 31
0.0
  0
LINE
  5
25D
100
AcDbEntity
  8
2
  6
CONTINUOUS
 62
     7
100
AcDbLine
 10
1162.175373
 20
867.389435
 30
0.0
 11
1162.175373
 21
865.389435
 31
0.0
  0
LINE
  5
25E
100
AcDbEntity
  8
2
  6
CONTINUOUS
 62
     7
100
AcDbLine
 10
1146.675373
 20
867.389435
 30
0.0
 11
1146.675373
 21
865.389435
 31
0.0
  0
LINE
  5
25F
100
AcDbEntity
  8
2
  6
CONTINUOUS
 62
     7
100
AcDbLine
 10
1151.424973
 20
860.390235
 30
0.0
 11
1151.424973
 21
854.889435
 31
0.0
  0
LINE
  5
260
100
AcDbEntity
  8
2
  6
CONTINUOUS
 62
     7
100
AcDbLine
 10
1157.424973
 20
860.390235
 30
0.0
 11
1157.424973
 21
854.889435
 31
0.0
  0
LINE
  5
261
100
AcDbEntity
  8
2
  6
CONTINUOUS
 62
     7
100
AcDbLine
 10
1149.424973
 20
865.389435
 30
0.0
 11
1149.424973
 21
860.889435
 31
0.0
  0
LINE
  5
262
100
AcDbEntity
  8
2
  6
CONTINUOUS
 62
     7
100
AcDbLine
 10
1149.924973
 20
860.390235
 30
0.0
 11
1154.424973
 21
860.390235
 31
0.0
  0
LINE
  5
263
100
AcDbEntity
  8
2
  6
CONTINUOUS
 62
     7
100
AcDbLine
 10
1151.924973
 20
865.389435
 30
0.0
 11
1151.924973
 21
860.889435
 31
0.0
  0
LINE
  5
264
100
AcDbEntity
  8
2
  6
CONTINUOUS
 62
     7
100
AcDbLine
 10
1149.424973
 20
860.889435
 30
0.0
 11
1149.924973
 21
860.390235
 31
0.0
  0
LINE
  5
265
100
AcDbEntity
  8
2
  6
CONTINUOUS
 62
     7
100
AcDbLine
 10
1159.424973
 20
865.389435
 30
0.0
 11
1159.424973
 21
860.889435
 31
0.0
  0
LINE
  5
266
100
AcDbEntity
  8
2
  6
CONTINUOUS
 62
     7
100
AcDbLine
 10
1159.424973
 20
860.889435
 30
0.0
 11
1158.924973
 21
860.389435
 31
0.0
  0
LINE
  5
267
100
AcDbEntity
  8
2
  6
CONTINUOUS
 62
     7
100
AcDbLine
 10
1158.924973
 20
860.390235
 30
0.0
 11
1154.424973
 21
860.390235
 31
0.0
  0
LINE
  5
268
100
AcDbEntity
  8
2
  6
CONTINUOUS
 62
     7
100
AcDbLine
 10
1156.924973
 20
865.389435
 30
0.0
 11
1156.924973
 21
860.889435
 31
0.0
  0
LINE
  5
269
100
AcDbEntity
  8
2
  6
CONTINUOUS
 62
     7
100
AcDbLine
 10
1151.424973
 20
854.890235
 30
0.0
 11
1151.924973
 21
854.390235
 31
0.0
  0
LINE
  5
26A
100
AcDbEntity
  8
2
  6
CONTINUOUS
 62
     7
100
AcDbLine
 10
1156.924973
 20
854.390235
 30
0.0
 11
1157.424973
 21
854.890235
 31
0.0
  0
LINE
  5
26B
100
AcDbEntity
  8
2
  6
CENTER
 62
     7
100
AcDbLine
 10
1154.424973
 20
898.889435
 30
0.0
 11
1154.424973
 21
843.669435
 31
0.0
  0
LINE
  5
26C
100
AcDbEntity
  8
2
  6
CENTER
 62
     7
100
AcDbLine
 10
1490.564173
 20
739.803835
 30
0.0
 11
1490.564173
 21
621.657435
 31
0.0
  0
LINE
  5
26D
100
AcDbEntity
  8
2
  6
CENTER
 62
     7
100
AcDbLine
 10
1501.597773
 20
681.239835
 30
0.0
 11
1430.303373
 21
681.239835
 31
0.0
  0
LINE
  5
26E
100
AcDbEntity
  8
2
  6
CENTER
 62
     7
100
AcDbLine
 10
1499.900173
 20
671.903835
 30
0.0
 11
1447.787373
 21
724.016635
 31
0.0
  0
LINE
  5
26F
100
AcDbEntity
  8
2
  6
CENTER
 62
     7
100
AcDbLine
 10
1448.465773
 20
639.141435
 30
0.0
 11
1501.258573
 21
691.934235
 31
0.0
  0
LINE
  5
270
100
AcDbEntity
  8
2
  6
CONTINUOUS
 62
     7
100
AcDbLine
 10
1652.673773
 20
670.390235
 30
0.0
 11
1652.673773
 21
520.390235
 31
0.0
  0
LINE
  5
271
100
AcDbEntity
  8
2
  6
CONTINUOUS
 62
     7
100
AcDbLine
 10
1684.673773
 20
670.390235
 30
0.0
 11
1684.673773
 21
520.390235
 31
0.0
  0
LINE
  5
272
100
AcDbEntity
  8
2
  6
CONTINUOUS
 62
     7
100
AcDbLine
 10
1652.673773
 20
520.390235
 30
0.0
 11
1684.673773
 21
520.390235
 31
0.0
  0
LINE
  5
273
100
AcDbEntity
  8
2
  6
CONTINUOUS
 62
     7
100
AcDbLine
 10
1652.673773
 20
667.390235
 30
0.0
 11
1684.673773
 21
667.390235
 31
0.0
  0
LINE
  5
274
100
AcDbEntity
  8
2
  6
CONTINUOUS
 62
     7
100
AcDbLine
 10
1654.673773
 20
665.390235
 30
0.0
 11
1654.673773
 21
564.207835
 31
0.0
  0
LINE
  5
275
100
AcDbEntity
  8
2
  6
CONTINUOUS
 62
     7
100
AcDbLine
 10
1654.673773
 20
564.207835
 30
0.0
 11
1663.673773
 21
572.390235
 31
0.0
  0
LINE
  5
276
100
AcDbEntity
  8
2
  6
CONTINUOUS
 62
     7
100
AcDbLine
 10
1654.673773
 20
580.571835
 30
0.0
 11
1663.673773
 21
572.390235
 31
0.0
  0
LINE
  5
277
100
AcDbEntity
  8
2
  6
CONTINUOUS
 62
     7
100
AcDbLine
 10
1652.673773
 20
564.207835
 30
0.0
 11
1654.673773
 21
564.207835
 31
0.0
  0
LINE
  5
278
100
AcDbEntity
  8
2
  6
CONTINUOUS
 62
     7
100
AcDbLine
 10
1654.673773
 20
665.390235
 30
0.0
 11
1680.924173
 21
665.390235
 31
0.0
  0
LINE
  5
279
100
AcDbEntity
  8
2
  6
CONTINUOUS
 62
     7
100
AcDbLine
 10
1654.673773
 20
665.389435
 30
0.0
 11
1652.673773
 21
667.390235
 31
0.0
  0
LINE
  5
27A
100
AcDbEntity
  8
2
  6
CONTINUOUS
 62
     7
100
AcDbLine
 10
1670.673773
 20
654.390235
 30
0.0
 11
1675.673773
 21
654.390235
 31
0.0
  0
LINE
  5
27B
100
AcDbEntity
  8
2
  6
CONTINUOUS
 62
     7
100
AcDbLine
 10
1680.924173
 20
667.390235
 30
0.0
 11
1680.924173
 21
665.390235
 31
0.0
  0
LINE
  5
27C
100
AcDbEntity
  8
2
  6
CONTINUOUS
 62
     7
100
AcDbLine
 10
1665.424173
 20
667.390235
 30
0.0
 11
1665.424173
 21
665.390235
 31
0.0
  0
LINE
  5
27D
100
AcDbEntity
  8
2
  6
CONTINUOUS
 62
     7
100
AcDbLine
 10
1670.173773
 20
660.390235
 30
0.0
 11
1670.173773
 21
654.889435
 31
0.0
  0
LINE
  5
27E
100
AcDbEntity
  8
2
  6
CONTINUOUS
 62
     7
100
AcDbLine
 10
1676.173773
 20
660.390235
 30
0.0
 11
1676.173773
 21
654.889435
 31
0.0
  0
LINE
  5
27F
100
AcDbEntity
  8
2
  6
CONTINUOUS
 62
     7
100
AcDbLine
 10
1668.173773
 20
665.390235
 30
0.0
 11
1668.173773
 21
660.890235
 31
0.0
  0
LINE
  5
280
100
AcDbEntity
  8
2
  6
CONTINUOUS
 62
     7
100
AcDbLine
 10
1668.673773
 20
660.390235
 30
0.0
 11
1673.173773
 21
660.390235
 31
0.0
  0
LINE
  5
281
100
AcDbEntity
  8
2
  6
CONTINUOUS
 62
     7
100
AcDbLine
 10
1670.673773
 20
665.390235
 30
0.0
 11
1670.673773
 21
660.890235
 31
0.0
  0
LINE
  5
282
100
AcDbEntity
  8
2
  6
CONTINUOUS
 62
     7
100
AcDbLine
 10
1668.173773
 20
660.890235
 30
0.0
 11
1668.673773
 21
660.389435
 31
0.0
  0
LINE
  5
283
100
AcDbEntity
  8
2
  6
CONTINUOUS
 62
     7
100
AcDbLine
 10
1678.173773
 20
665.390235
 30
0.0
 11
1678.173773
 21
660.890235
 31
0.0
  0
LINE
  5
284
100
AcDbEntity
  8
2
  6
CONTINUOUS
 62
     7
100
AcDbLine
 10
1678.173773
 20
660.890235
 30
0.0
 11
1677.673773
 21
660.390235
 31
0.0
  0
LINE
  5
285
100
AcDbEntity
  8
2
  6
CONTINUOUS
 62
     7
100
AcDbLine
 10
1677.673773
 20
660.390235
 30
0.0
 11
1673.173773
 21
660.390235
 31
0.0
  0
LINE
  5
286
100
AcDbEntity
  8
2
  6
CONTINUOUS
 62
     7
100
AcDbLine
 10
1675.673773
 20
665.390235
 30
0.0
 11
1675.673773
 21
660.890235
 31
0.0
  0
LINE
  5
287
100
AcDbEntity
  8
2
  6
CONTINUOUS
 62
     7
100
AcDbLine
 10
1670.173773
 20
654.890235
 30
0.0
 11
1670.673773
 21
654.389435
 31
0.0
  0
LINE
  5
288
100
AcDbEntity
  8
2
  6
CONTINUOUS
 62
     7
100
AcDbLine
 10
1675.673773
 20
654.389435
 30
0.0
 11
1676.173773
 21
654.889435
 31
0.0
  0
LINE
  5
289
100
AcDbEntity
  8
2
  6
CENTER
 62
     7
100
AcDbLine
 10
1673.173773
 20
698.889435
 30
0.0
 11
1673.173773
 21
643.669435
 31
0.0
  0
LINE
  5
28A
100
AcDbEntity
  8
2
  6
CONTINUOUS
 62
     7
100
AcDbLine
 10
2602.673773
 20
670.390235
 30
0.0
 11
2602.673773
 21
520.390235
 31
0.0
  0
LINE
  5
28B
100
AcDbEntity
  8
2
  6
CONTINUOUS
 62
     7
100
AcDbLine
 10
2634.673773
 20
670.390235
 30
0.0
 11
2634.673773
 21
520.390235
 31
0.0
  0
LINE
  5
28C
100
AcDbEntity
  8
2
  6
CONTINUOUS
 62
     7
100
AcDbLine
 10
2602.673773
 20
520.390235
 30
0.0
 11
2634.673773
 21
520.390235
 31
0.0
  0
LINE
  5
28D
100
AcDbEntity
  8
2
  6
CONTINUOUS
 62
     7
100
AcDbLine
 10
2602.673773
 20
667.390235
 30
0.0
 11
2634.673773
 21
667.390235
 31
0.0
  0
LINE
  5
28E
100
AcDbEntity
  8
2
  6
CONTINUOUS
 62
     7
100
AcDbLine
 10
2604.673773
 20
665.390235
 30
0.0
 11
2604.673773
 21
564.207835
 31
0.0
  0
LINE
  5
28F
100
AcDbEntity
  8
2
  6
CONTINUOUS
 62
     7
100
AcDbLine
 10
2604.673773
 20
564.207835
 30
0.0
 11
2613.673773
 21
572.389435
 31
0.0
  0
LINE
  5
290
100
AcDbEntity
  8
2
  6
CONTINUOUS
 62
     7
100
AcDbLine
 10
2604.673773
 20
580.571835
 30
0.0
 11
2613.673773
 21
572.389435
 31
0.0
  0
LINE
  5
291
100
AcDbEntity
  8
2
  6
CONTINUOUS
 62
     7
100
AcDbLine
 10
2602.673773
 20
564.207835
 30
0.0
 11
2604.673773
 21
564.207835
 31
0.0
  0
LINE
  5
292
100
AcDbEntity
  8
2
  6
CONTINUOUS
 62
     7
100
AcDbLine
 10
2604.673773
 20
665.390235
 30
0.0
 11
2630.924173
 21
665.390235
 31
0.0
  0
LINE
  5
293
100
AcDbEntity
  8
2
  6
CONTINUOUS
 62
     7
100
AcDbLine
 10
2604.673773
 20
665.389435
 30
0.0
 11
2602.673773
 21
667.389435
 31
0.0
  0
LINE
  5
294
100
AcDbEntity
  8
2
  6
CONTINUOUS
 62
     7
100
AcDbLine
 10
2620.673773
 20
654.390235
 30
0.0
 11
2625.673773
 21
654.390235
 31
0.0
  0
LINE
  5
295
100
AcDbEntity
  8
2
  6
CONTINUOUS
 62
     7
100
AcDbLine
 10
2630.924173
 20
667.390235
 30
0.0
 11
2630.924173
 21
665.390235
 31
0.0
  0
LINE
  5
296
100
AcDbEntity
  8
2
  6
CONTINUOUS
 62
     7
100
AcDbLine
 10
2615.424173
 20
667.390235
 30
0.0
 11
2615.424173
 21
665.390235
 31
0.0
  0
LINE
  5
297
100
AcDbEntity
  8
2
  6
CONTINUOUS
 62
     7
100
AcDbLine
 10
2620.173773
 20
660.390235
 30
0.0
 11
2620.173773
 21
654.889435
 31
0.0
  0
LINE
  5
298
100
AcDbEntity
  8
2
  6
CONTINUOUS
 62
     7
100
AcDbLine
 10
2626.173773
 20
660.390235
 30
0.0
 11
2626.173773
 21
654.889435
 31
0.0
  0
LINE
  5
299
100
AcDbEntity
  8
2
  6
CONTINUOUS
 62
     7
100
AcDbLine
 10
2618.173773
 20
665.390235
 30
0.0
 11
2618.173773
 21
660.890235
 31
0.0
  0
LINE
  5
29A
100
AcDbEntity
  8
2
  6
CONTINUOUS
 62
     7
100
AcDbLine
 10
2618.673773
 20
660.390235
 30
0.0
 11
2623.173773
 21
660.390235
 31
0.0
  0
LINE
  5
29B
100
AcDbEntity
  8
2
  6
CONTINUOUS
 62
     7
100
AcDbLine
 10
2620.673773
 20
665.390235
 30
0.0
 11
2620.673773
 21
660.890235
 31
0.0
  0
LINE
  5
29C
100
AcDbEntity
  8
2
  6
CONTINUOUS
 62
     7
100
AcDbLine
 10
2618.173773
 20
660.889435
 30
0.0
 11
2618.673773
 21
660.390235
 31
0.0
  0
LINE
  5
29D
100
AcDbEntity
  8
2
  6
CONTINUOUS
 62
     7
100
AcDbLine
 10
2628.173773
 20
665.390235
 30
0.0
 11
2628.173773
 21
660.890235
 31
0.0
  0
LINE
  5
29E
100
AcDbEntity
  8
2
  6
CONTINUOUS
 62
     7
100
AcDbLine
 10
2628.173773
 20
660.890235
 30
0.0
 11
2627.673773
 21
660.390235
 31
0.0
  0
LINE
  5
29F
100
AcDbEntity
  8
2
  6
CONTINUOUS
 62
     7
100
AcDbLine
 10
2627.673773
 20
660.390235
 30
0.0
 11
2623.173773
 21
660.390235
 31
0.0
  0
LINE
  5
2A0
100
AcDbEntity
  8
2
  6
CONTINUOUS
 62
     7
100
AcDbLine
 10
2625.673773
 20
665.390235
 30
0.0
 11
2625.673773
 21
660.890235
 31
0.0
  0
LINE
  5
2A1
100
AcDbEntity
  8
2
  6
CONTINUOUS
 62
     7
100
AcDbLine
 10
2620.173773
 20
654.890235
 30
0.0
 11
2620.673773
 21
654.390235
 31
0.0
  0
LINE
  5
2A2
100
AcDbEntity
  8
2
  6
CONTINUOUS
 62
     7
100
AcDbLine
 10
2625.673773
 20
654.389435
 30
0.0
 11
2626.173773
 21
654.890235
 31
0.0
  0
LINE
  5
2A3
100
AcDbEntity
  8
2
  6
CENTER
 62
     7
100
AcDbLine
 10
2623.173773
 20
698.889435
 30
0.0
 11
2623.173773
 21
643.669435
 31
0.0
  0
LINE
  5
2A4
100
AcDbEntity
  8
2
  6
CONTINUOUS
 62
     7
100
AcDbLine
 10
1097.424973
 20
820.390235
 30
0.0
 11
1097.424973
 21
816.390235
 31
0.0
  0
LINE
  5
2A5
100
AcDbEntity
  8
2
  6
HIDDEN
 62
     7
100
AcDbLine
 10
1097.424973
 20
825.390235
 30
0.0
 11
1097.424973
 21
820.390235
 31
0.0
  0
LINE
  5
2A6
100
AcDbEntity
  8
2
  6
CONTINUOUS
 62
     7
100
AcDbLine
 10
1097.424973
 20
827.390235
 30
0.0
 11
1097.424973
 21
825.390235
 31
0.0
  0
LINE
  5
2A7
100
AcDbEntity
  8
2
  6
CONTINUOUS
 62
     7
100
AcDbLine
 10
1104.424973
 20
834.390235
 30
0.0
 11
1106.424973
 21
834.390235
 31
0.0
  0
LINE
  5
2A8
100
AcDbEntity
  8
2
  6
CONTINUOUS
 62
     7
100
AcDbLine
 10
1106.424973
 20
837.890235
 30
0.0
 11
1106.424973
 21
834.390235
 31
0.0
  0
LINE
  5
2A9
100
AcDbEntity
  8
2
  6
CONTINUOUS
 62
     7
100
AcDbLine
 10
1106.424973
 20
837.890235
 30
0.0
 11
1111.424973
 21
837.890235
 31
0.0
  0
LINE
  5
2AA
100
AcDbEntity
  8
2
  6
HIDDEN
 62
     7
100
AcDbLine
 10
1106.424973
 20
834.390235
 30
0.0
 11
1111.424973
 21
834.390235
 31
0.0
  0
LINE
  5
2AB
100
AcDbEntity
  8
2
  6
CONTINUOUS
 62
     7
100
AcDbLine
 10
1111.424973
 20
837.890235
 30
0.0
 11
1111.424973
 21
816.390235
 31
0.0
  0
LINE
  5
2AC
100
AcDbEntity
  8
2
  6
CONTINUOUS
 62
     7
100
AcDbLine
 10
697.424973
 20
820.390235
 30
0.0
 11
697.424973
 21
816.390235
 31
0.0
  0
LINE
  5
2AD
100
AcDbEntity
  8
2
  6
HIDDEN
 62
     7
100
AcDbLine
 10
697.424973
 20
825.390235
 30
0.0
 11
697.424973
 21
820.390235
 31
0.0
  0
LINE
  5
2AE
100
AcDbEntity
  8
2
  6
CONTINUOUS
 62
     7
100
AcDbLine
 10
697.424973
 20
827.390235
 30
0.0
 11
697.424973
 21
825.390235
 31
0.0
  0
LINE
  5
2AF
100
AcDbEntity
  8
2
  6
CONTINUOUS
 62
     7
100
AcDbLine
 10
704.424973
 20
834.390235
 30
0.0
 11
706.424973
 21
834.390235
 31
0.0
  0
LINE
  5
2B0
100
AcDbEntity
  8
2
  6
CONTINUOUS
 62
     7
100
AcDbLine
 10
706.424973
 20
837.890235
 30
0.0
 11
706.424973
 21
834.390235
 31
0.0
  0
LINE
  5
2B1
100
AcDbEntity
  8
2
  6
CONTINUOUS
 62
     7
100
AcDbLine
 10
706.424973
 20
837.890235
 30
0.0
 11
711.424973
 21
837.890235
 31
0.0
  0
LINE
  5
2B2
100
AcDbEntity
  8
2
  6
HIDDEN
 62
     7
100
AcDbLine
 10
706.424973
 20
834.390235
 30
0.0
 11
711.424973
 21
834.390235
 31
0.0
  0
LINE
  5
2B3
100
AcDbEntity
  8
2
  6
CONTINUOUS
 62
     7
100
AcDbLine
 10
711.424973
 20
837.890235
 30
0.0
 11
711.424973
 21
816.390235
 31
0.0
  0
LINE
  5
2B4
100
AcDbEntity
  8
2
  6
CONTINUOUS
 62
     7
100
AcDbLine
 10
297.424973
 20
820.390235
 30
0.0
 11
297.424973
 21
816.390235
 31
0.0
  0
LINE
  5
2B5
100
AcDbEntity
  8
2
  6
HIDDEN
 62
     7
100
AcDbLine
 10
297.424973
 20
825.390235
 30
0.0
 11
297.424973
 21
820.390235
 31
0.0
  0
LINE
  5
2B6
100
AcDbEntity
  8
2
  6
CONTINUOUS
 62
     7
100
AcDbLine
 10
297.424973
 20
827.390235
 30
0.0
 11
297.424973
 21
825.390235
 31
0.0
  0
LINE
  5
2B7
100
AcDbEntity
  8
2
  6
CONTINUOUS
 62
     7
100
AcDbLine
 10
304.424973
 20
834.390235
 30
0.0
 11
306.424973
 21
834.390235
 31
0.0
  0
LINE
  5
2B8
100
AcDbEntity
  8
2
  6
CONTINUOUS
 62
     7
100
AcDbLine
 10
306.424973
 20
837.890235
 30
0.0
 11
306.424973
 21
834.390235
 31
0.0
  0
LINE
  5
2B9
100
AcDbEntity
  8
2
  6
CONTINUOUS
 62
     7
100
AcDbLine
 10
306.424973
 20
837.890235
 30
0.0
 11
311.424973
 21
837.890235
 31
0.0
  0
LINE
  5
2BA
100
AcDbEntity
  8
2
  6
HIDDEN
 62
     7
100
AcDbLine
 10
306.424973
 20
834.390235
 30
0.0
 11
311.424973
 21
834.390235
 31
0.0
  0
LINE
  5
2BB
100
AcDbEntity
  8
2
  6
CONTINUOUS
 62
     7
100
AcDbLine
 10
311.424973
 20
837.890235
 30
0.0
 11
311.424973
 21
816.390235
 31
0.0
  0
LINE
  5
2BC
100
AcDbEntity
  8
2
  6
CONTINUOUS
 62
     7
100
AcDbLine
 10
1133.924973
 20
720.390235
 30
0.0
 11
1165.924973
 21
720.390235
 31
0.0
  0
LINE
  5
2BD
100
AcDbEntity
  8
2
  6
CONTINUOUS
 62
     7
100
AcDbLine
 10
183.924973
 20
720.390235
 30
0.0
 11
215.924973
 21
720.390235
 31
0.0
  0
LINE
  5
2BE
100
AcDbEntity
  8
2
  6
CONTINUOUS
 62
     7
100
AcDbLine
 10
202.424973
 20
836.889435
 30
0.0
 11
202.424973
 21
835.602235
 31
0.0
  0
LINE
  5
2BF
100
AcDbEntity
  8
2
  6
CONTINUOUS
 62
     7
100
AcDbLine
 10
197.424973
 20
734.177435
 30
0.0
 11
197.424973
 21
732.890235
 31
0.0
  0
LINE
  5
2C0
100
AcDbEntity
  8
2
  6
CONTINUOUS
 62
     7
100
AcDbLine
 10
202.424973
 20
734.177435
 30
0.0
 11
202.424973
 21
732.890235
 31
0.0
  0
LINE
  5
2C1
100
AcDbEntity
  8
2
  6
CONTINUOUS
 62
     7
100
AcDbLine
 10
197.424973
 20
836.889435
 30
0.0
 11
197.424973
 21
835.602235
 31
0.0
  0
LINE
  5
2C2
100
AcDbEntity
  8
2
  6
CENTER
 62
     7
100
AcDbLine
 10
183.662573
 20
824.890235
 30
0.0
 11
213.432173
 21
824.890235
 31
0.0
  0
LINE
  5
2C3
100
AcDbEntity
  8
2
  6
CENTER
 62
     7
100
AcDbLine
 10
199.924973
 20
838.902235
 30
0.0
 11
199.924973
 21
810.125435
 31
0.0
  0
LINE
  5
2C4
100
AcDbEntity
  8
2
  6
CONTINUOUS
 62
     7
100
AcDbLine
 10
192.924973
 20
828.931035
 30
0.0
 11
192.924973
 21
820.848635
 31
0.0
  0
LINE
  5
2C5
100
AcDbEntity
  8
2
  6
CONTINUOUS
 62
     7
100
AcDbLine
 10
206.924973
 20
820.848635
 30
0.0
 11
199.924973
 21
816.807035
 31
0.0
  0
LINE
  5
2C6
100
AcDbEntity
  8
2
  6
CONTINUOUS
 62
     7
100
AcDbLine
 10
199.924973
 20
752.972635
 30
0.0
 11
192.924973
 21
748.931035
 31
0.0
  0
LINE
  5
2C7
100
AcDbEntity
  8
2
  6
CENTER
 62
     7
100
AcDbLine
 10
183.662573
 20
744.890235
 30
0.0
 11
213.431373
 21
744.890235
 31
0.0
  0
LINE
  5
2C8
100
AcDbEntity
  8
2
  6
CENTER
 62
     7
100
AcDbLine
 10
199.924973
 20
758.902235
 30
0.0
 11
199.924973
 21
730.125435
 31
0.0
  0
LINE
  5
2C9
100
AcDbEntity
  8
2
  6
CONTINUOUS
 62
     7
100
AcDbLine
 10
192.924973
 20
748.931035
 30
0.0
 11
192.924973
 21
740.848635
 31
0.0
  0
LINE
  5
2CA
100
AcDbEntity
  8
2
  6
CONTINUOUS
 62
     7
100
AcDbLine
 10
199.924973
 20
736.807035
 30
0.0
 11
192.924973
 21
740.848635
 31
0.0
  0
LINE
  5
2CB
100
AcDbEntity
  8
2
  6
CONTINUOUS
 62
     7
100
AcDbLine
 10
199.924973
 20
816.807035
 30
0.0
 11
192.924973
 21
820.848635
 31
0.0
  0
LINE
  5
2CC
100
AcDbEntity
  8
2
  6
CONTINUOUS
 62
     7
100
AcDbLine
 10
199.924973
 20
832.972635
 30
0.0
 11
192.924973
 21
828.931035
 31
0.0
  0
LINE
  5
2CD
100
AcDbEntity
  8
2
  6
CONTINUOUS
 62
     7
100
AcDbLine
 10
206.924973
 20
828.931035
 30
0.0
 11
206.924973
 21
820.848635
 31
0.0
  0
LINE
  5
2CE
100
AcDbEntity
  8
2
  6
CONTINUOUS
 62
     7
100
AcDbLine
 10
199.924973
 20
832.972635
 30
0.0
 11
206.924973
 21
828.931035
 31
0.0
  0
LINE
  5
2CF
100
AcDbEntity
  8
2
  6
CONTINUOUS
 62
     7
100
AcDbLine
 10
206.924973
 20
740.848635
 30
0.0
 11
199.924973
 21
736.807035
 31
0.0
  0
LINE
  5
2D0
100
AcDbEntity
  8
2
  6
CONTINUOUS
 62
     7
100
AcDbLine
 10
199.924973
 20
752.972635
 30
0.0
 11
206.924973
 21
748.931035
 31
0.0
  0
LINE
  5
2D1
100
AcDbEntity
  8
2
  6
CONTINUOUS
 62
     7
100
AcDbLine
 10
206.924973
 20
748.931035
 30
0.0
 11
206.924973
 21
740.848635
 31
0.0
  0
LINE
  5
2D2
100
AcDbEntity
  8
2
  6
CONTINUOUS
 62
     7
100
AcDbLine
 10
295.424973
 20
870.389435
 30
0.0
 11
129.424973
 21
870.389435
 31
0.0
  0
LINE
  5
2D3
100
AcDbEntity
  8
2
  6
CONTINUOUS
 62
     7
100
AcDbLine
 10
1152.424973
 20
836.889435
 30
0.0
 11
1152.424973
 21
835.602235
 31
0.0
  0
LINE
  5
2D4
100
AcDbEntity
  8
2
  6
CONTINUOUS
 62
     7
100
AcDbLine
 10
1147.424973
 20
734.177435
 30
0.0
 11
1147.424973
 21
732.890235
 31
0.0
  0
LINE
  5
2D5
100
AcDbEntity
  8
2
  6
CONTINUOUS
 62
     7
100
AcDbLine
 10
1152.424973
 20
734.177435
 30
0.0
 11
1152.424973
 21
732.890235
 31
0.0
  0
LINE
  5
2D6
100
AcDbEntity
  8
2
  6
CONTINUOUS
 62
     7
100
AcDbLine
 10
1147.424973
 20
836.889435
 30
0.0
 11
1147.424973
 21
835.602235
 31
0.0
  0
LINE
  5
2D7
100
AcDbEntity
  8
2
  6
CENTER
 62
     7
100
AcDbLine
 10
1133.662573
 20
824.890235
 30
0.0
 11
1163.431373
 21
824.890235
 31
0.0
  0
LINE
  5
2D8
100
AcDbEntity
  8
2
  6
CENTER
 62
     7
100
AcDbLine
 10
1149.924973
 20
838.902235
 30
0.0
 11
1149.924973
 21
810.125435
 31
0.0
  0
LINE
  5
2D9
100
AcDbEntity
  8
2
  6
CONTINUOUS
 62
     7
100
AcDbLine
 10
1142.924973
 20
828.931035
 30
0.0
 11
1142.924973
 21
820.848635
 31
0.0
  0
LINE
  5
2DA
100
AcDbEntity
  8
2
  6
CONTINUOUS
 62
     7
100
AcDbLine
 10
1156.924973
 20
820.848635
 30
0.0
 11
1149.924973
 21
816.807035
 31
0.0
  0
LINE
  5
2DB
100
AcDbEntity
  8
2
  6
CONTINUOUS
 62
     7
100
AcDbLine
 10
1149.924973
 20
752.972635
 30
0.0
 11
1142.924973
 21
748.931035
 31
0.0
  0
LINE
  5
2DC
100
AcDbEntity
  8
2
  6
CENTER
 62
     7
100
AcDbLine
 10
1133.662573
 20
744.890235
 30
0.0
 11
1163.431373
 21
744.890235
 31
0.0
  0
LINE
  5
2DD
100
AcDbEntity
  8
2
  6
CENTER
 62
     7
100
AcDbLine
 10
1149.924973
 20
758.902235
 30
0.0
 11
1149.924973
 21
730.125435
 31
0.0
  0
LINE
  5
2DE
100
AcDbEntity
  8
2
  6
CONTINUOUS
 62
     7
100
AcDbLine
 10
1142.924973
 20
748.931035
 30
0.0
 11
1142.924973
 21
740.848635
 31
0.0
  0
LINE
  5
2DF
100
AcDbEntity
  8
2
  6
CONTINUOUS
 62
     7
100
AcDbLine
 10
1149.924973
 20
736.807035
 30
0.0
 11
1142.924973
 21
740.848635
 31
0.0
  0
LINE
  5
2E0
100
AcDbEntity
  8
2
  6
CONTINUOUS
 62
     7
100
AcDbLine
 10
1149.924973
 20
816.807035
 30
0.0
 11
1142.924973
 21
820.848635
 31
0.0
  0
LINE
  5
2E1
100
AcDbEntity
  8
2
  6
CONTINUOUS
 62
     7
100
AcDbLine
 10
1149.924973
 20
832.972635
 30
0.0
 11
1142.924973
 21
828.931035
 31
0.0
  0
LINE
  5
2E2
100
AcDbEntity
  8
2
  6
CONTINUOUS
 62
     7
100
AcDbLine
 10
1156.924973
 20
828.931035
 30
0.0
 11
1156.924973
 21
820.848635
 31
0.0
  0
LINE
  5
2E3
100
AcDbEntity
  8
2
  6
CONTINUOUS
 62
     7
100
AcDbLine
 10
1149.924973
 20
832.972635
 30
0.0
 11
1156.924973
 21
828.931035
 31
0.0
  0
LINE
  5
2E4
100
AcDbEntity
  8
2
  6
CONTINUOUS
 62
     7
100
AcDbLine
 10
1156.924973
 20
740.848635
 30
0.0
 11
1149.924973
 21
736.807035
 31
0.0
  0
LINE
  5
2E5
100
AcDbEntity
  8
2
  6
CONTINUOUS
 62
     7
100
AcDbLine
 10
1149.924973
 20
752.972635
 30
0.0
 11
1156.924973
 21
748.931035
 31
0.0
  0
LINE
  5
2E6
100
AcDbEntity
  8
2
  6
CONTINUOUS
 62
     7
100
AcDbLine
 10
1156.924973
 20
748.931035
 30
0.0
 11
1156.924973
 21
740.848635
 31
0.0
  0
LINE
  5
2E7
100
AcDbEntity
  8
2
  6
CONTINUOUS
 62
     7
100
AcDbLine
 10
1671.173773
 20
636.889435
 30
0.0
 11
1671.173773
 21
635.602235
 31
0.0
  0
LINE
  5
2E8
100
AcDbEntity
  8
2
  6
CONTINUOUS
 62
     7
100
AcDbLine
 10
1666.173773
 20
534.177435
 30
0.0
 11
1666.173773
 21
532.890235
 31
0.0
  0
LINE
  5
2E9
100
AcDbEntity
  8
2
  6
CONTINUOUS
 62
     7
100
AcDbLine
 10
1671.173773
 20
534.177435
 30
0.0
 11
1671.173773
 21
532.890235
 31
0.0
  0
LINE
  5
2EA
100
AcDbEntity
  8
2
  6
CONTINUOUS
 62
     7
100
AcDbLine
 10
1666.173773
 20
636.889435
 30
0.0
 11
1666.173773
 21
635.602235
 31
0.0
  0
LINE
  5
2EB
100
AcDbEntity
  8
2
  6
CENTER
 62
     7
100
AcDbLine
 10
1652.411373
 20
624.890235
 30
0.0
 11
1682.180173
 21
624.890235
 31
0.0
  0
LINE
  5
2EC
100
AcDbEntity
  8
2
  6
CENTER
 62
     7
100
AcDbLine
 10
1668.673773
 20
638.902235
 30
0.0
 11
1668.673773
 21
610.125435
 31
0.0
  0
LINE
  5
2ED
100
AcDbEntity
  8
2
  6
CONTINUOUS
 62
     7
100
AcDbLine
 10
1661.673773
 20
628.931035
 30
0.0
 11
1661.673773
 21
620.848635
 31
0.0
  0
LINE
  5
2EE
100
AcDbEntity
  8
2
  6
CONTINUOUS
 62
     7
100
AcDbLine
 10
1675.673773
 20
620.848635
 30
0.0
 11
1668.673773
 21
616.807035
 31
0.0
  0
LINE
  5
2EF
100
AcDbEntity
  8
2
  6
CONTINUOUS
 62
     7
100
AcDbLine
 10
1668.673773
 20
552.972635
 30
0.0
 11
1661.673773
 21
548.931035
 31
0.0
  0
LINE
  5
2F0
100
AcDbEntity
  8
2
  6
CENTER
 62
     7
100
AcDbLine
 10
1652.411373
 20
544.890235
 30
0.0
 11
1682.180173
 21
544.890235
 31
0.0
  0
LINE
  5
2F1
100
AcDbEntity
  8
2
  6
CENTER
 62
     7
100
AcDbLine
 10
1668.673773
 20
558.902235
 30
0.0
 11
1668.673773
 21
530.125435
 31
0.0
  0
LINE
  5
2F2
100
AcDbEntity
  8
2
  6
CONTINUOUS
 62
     7
100
AcDbLine
 10
1661.673773
 20
548.931035
 30
0.0
 11
1661.673773
 21
540.848635
 31
0.0
  0
LINE
  5
2F3
100
AcDbEntity
  8
2
  6
CONTINUOUS
 62
     7
100
AcDbLine
 10
1668.673773
 20
536.807035
 30
0.0
 11
1661.673773
 21
540.848635
 31
0.0
  0
LINE
  5
2F4
100
AcDbEntity
  8
2
  6
CONTINUOUS
 62
     7
100
AcDbLine
 10
1668.673773
 20
616.807035
 30
0.0
 11
1661.673773
 21
620.848635
 31
0.0
  0
LINE
  5
2F5
100
AcDbEntity
  8
2
  6
CONTINUOUS
 62
     7
100
AcDbLine
 10
1668.673773
 20
632.972635
 30
0.0
 11
1661.673773
 21
628.931035
 31
0.0
  0
LINE
  5
2F6
100
AcDbEntity
  8
2
  6
CONTINUOUS
 62
     7
100
AcDbLine
 10
1675.673773
 20
628.931035
 30
0.0
 11
1675.673773
 21
620.848635
 31
0.0
  0
LINE
  5
2F7
100
AcDbEntity
  8
2
  6
CONTINUOUS
 62
     7
100
AcDbLine
 10
1668.673773
 20
632.972635
 30
0.0
 11
1675.673773
 21
628.931035
 31
0.0
  0
LINE
  5
2F8
100
AcDbEntity
  8
2
  6
CONTINUOUS
 62
     7
100
AcDbLine
 10
1675.673773
 20
540.848635
 30
0.0
 11
1668.673773
 21
536.807035
 31
0.0
  0
LINE
  5
2F9
100
AcDbEntity
  8
2
  6
CONTINUOUS
 62
     7
100
AcDbLine
 10
1668.673773
 20
552.972635
 30
0.0
 11
1675.673773
 21
548.931035
 31
0.0
  0
LINE
  5
2FA
100
AcDbEntity
  8
2
  6
CONTINUOUS
 62
     7
100
AcDbLine
 10
1675.673773
 20
548.931035
 30
0.0
 11
1675.673773
 21
540.848635
 31
0.0
  0
LINE
  5
2FB
100
AcDbEntity
  8
2
  6
CONTINUOUS
 62
     7
100
AcDbLine
 10
2621.173773
 20
636.889435
 30
0.0
 11
2621.173773
 21
635.602235
 31
0.0
  0
LINE
  5
2FC
100
AcDbEntity
  8
2
  6
CONTINUOUS
 62
     7
100
AcDbLine
 10
2616.173773
 20
534.177435
 30
0.0
 11
2616.173773
 21
532.890235
 31
0.0
  0
LINE
  5
2FD
100
AcDbEntity
  8
2
  6
CONTINUOUS
 62
     7
100
AcDbLine
 10
2621.173773
 20
534.177435
 30
0.0
 11
2621.173773
 21
532.890235
 31
0.0
  0
LINE
  5
2FE
100
AcDbEntity
  8
2
  6
CONTINUOUS
 62
     7
100
AcDbLine
 10
2616.173773
 20
636.889435
 30
0.0
 11
2616.173773
 21
635.602235
 31
0.0
  0
LINE
  5
2FF
100
AcDbEntity
  8
2
  6
CENTER
 62
     7
100
AcDbLine
 10
2602.411373
 20
624.890235
 30
0.0
 11
2632.180173
 21
624.890235
 31
0.0
  0
LINE
  5
300
100
AcDbEntity
  8
2
  6
CENTER
 62
     7
100
AcDbLine
 10
2618.673773
 20
638.902235
 30
0.0
 11
2618.673773
 21
610.125435
 31
0.0
  0
LINE
  5
301
100
AcDbEntity
  8
2
  6
CONTINUOUS
 62
     7
100
AcDbLine
 10
2611.673773
 20
628.931035
 30
0.0
 11
2611.673773
 21
620.848635
 31
0.0
  0
LINE
  5
302
100
AcDbEntity
  8
2
  6
CONTINUOUS
 62
     7
100
AcDbLine
 10
2625.673773
 20
620.848635
 30
0.0
 11
2618.673773
 21
616.807035
 31
0.0
  0
LINE
  5
303
100
AcDbEntity
  8
2
  6
CONTINUOUS
 62
     7
100
AcDbLine
 10
2618.673773
 20
552.972635
 30
0.0
 11
2611.673773
 21
548.931035
 31
0.0
  0
LINE
  5
304
100
AcDbEntity
  8
2
  6
CENTER
 62
     7
100
AcDbLine
 10
2602.411373
 20
544.890235
 30
0.0
 11
2632.180173
 21
544.890235
 31
0.0
  0
LINE
  5
305
100
AcDbEntity
  8
2
  6
CENTER
 62
     7
100
AcDbLine
 10
2618.673773
 20
558.902235
 30
0.0
 11
2618.673773
 21
530.125435
 31
0.0
  0
LINE
  5
306
100
AcDbEntity
  8
2
  6
CONTINUOUS
 62
     7
100
AcDbLine
 10
2611.673773
 20
548.931035
 30
0.0
 11
2611.673773
 21
540.848635
 31
0.0
  0
LINE
  5
307
100
AcDbEntity
  8
2
  6
CONTINUOUS
 62
     7
100
AcDbLine
 10
2618.673773
 20
536.807035
 30
0.0
 11
2611.673773
 21
540.848635
 31
0.0
  0
LINE
  5
308
100
AcDbEntity
  8
2
  6
CONTINUOUS
 62
     7
100
AcDbLine
 10
2618.673773
 20
616.807035
 30
0.0
 11
2611.673773
 21
620.848635
 31
0.0
  0
LINE
  5
309
100
AcDbEntity
  8
2
  6
CONTINUOUS
 62
     7
100
AcDbLine
 10
2618.673773
 20
632.972635
 30
0.0
 11
2611.673773
 21
628.931035
 31
0.0
  0
LINE
  5
30A
100
AcDbEntity
  8
2
  6
CONTINUOUS
 62
     7
100
AcDbLine
 10
2625.673773
 20
628.931035
 30
0.0
 11
2625.673773
 21
620.848635
 31
0.0
  0
LINE
  5
30B
100
AcDbEntity
  8
2
  6
CONTINUOUS
 62
     7
100
AcDbLine
 10
2618.673773
 20
632.972635
 30
0.0
 11
2625.673773
 21
628.931035
 31
0.0
  0
LINE
  5
30C
100
AcDbEntity
  8
2
  6
CONTINUOUS
 62
     7
100
AcDbLine
 10
2625.673773
 20
540.848635
 30
0.0
 11
2618.673773
 21
536.807035
 31
0.0
  0
LINE
  5
30D
100
AcDbEntity
  8
2
  6
CONTINUOUS
 62
     7
100
AcDbLine
 10
2618.673773
 20
552.972635
 30
0.0
 11
2625.673773
 21
548.931035
 31
0.0
  0
LINE
  5
30E
100
AcDbEntity
  8
2
  6
CONTINUOUS
 62
     7
100
AcDbLine
 10
2625.673773
 20
548.931035
 30
0.0
 11
2625.673773
 21
540.848635
 31
0.0
  0
LINE
  5
30F
100
AcDbEntity
  8
2
  6
CONTINUOUS
 62
     7
100
AcDbLine
 10
2532.173773
 20
670.389435
 30
0.0
 11
2698.173773
 21
670.389435
 31
0.0
  0
LINE
  5
310
100
AcDbEntity
  8
2
  6
CONTINUOUS
 62
     7
100
AcDbLine
 10
1305.924973
 20
928.739835
 30
0.0
 11
1305.924973
 21
833.739835
 31
0.0
  0
LINE
  5
311
100
AcDbEntity
  8
2
  6
CONTINUOUS
 62
     7
100
AcDbLine
 10
1304.424973
 20
928.739835
 30
0.0
 11
1305.924973
 21
928.739835
 31
0.0
  0
LINE
  5
312
100
AcDbEntity
  8
2
  6
CONTINUOUS
 62
     7
100
AcDbLine
 10
1304.424973
 20
833.739835
 30
0.0
 11
1305.924973
 21
833.739835
 31
0.0
  0
ARC
  5
313
100
AcDbEntity
  8
2
  6
CONTINUOUS
 62
     7
100
AcDbCircle
 10
1526.173773
 20
726.739835
 30
0.0
 40
2.0
100
AcDbArc
 50
90.0
 51
180.0
  0
ARC
  5
314
100
AcDbEntity
  8
2
  6
CONTINUOUS
 62
     7
100
AcDbCircle
 10
1526.173773
 20
635.739835
 30
0.0
 40
2.0
100
AcDbArc
 50
180.0
 51
-90.0
  0
ARC
  5
315
100
AcDbEntity
  8
2
  6
CONTINUOUS
 62
     7
100
AcDbCircle
 10
1535.173773
 20
726.739835
 30
0.0
 40
2.0
100
AcDbArc
 50
0.0
 51
90.0
  0
ARC
  5
316
100
AcDbEntity
  8
2
  6
CONTINUOUS
 62
     7
100
AcDbCircle
 10
1535.173773
 20
635.739835
 30
0.0
 40
2.0
100
AcDbArc
 50
-90.0
 51
0.0
  0
ARC
  5
317
100
AcDbEntity
  8
2
  6
CONTINUOUS
 62
     7
100
AcDbCircle
 10
1541.173773
 20
703.090235
 30
0.0
 40
4.0
100
AcDbArc
 50
180.0
 51
-90.0
  0
ARC
  5
318
100
AcDbEntity
  8
2
  6
CONTINUOUS
 62
     7
100
AcDbCircle
 10
1541.173773
 20
659.390235
 30
0.0
 40
4.0
100
AcDbArc
 50
90.0
 51
180.0
  0
ARC
  5
319
100
AcDbEntity
  8
2
  6
CONTINUOUS
 62
     7
100
AcDbCircle
 10
2523.173773
 20
651.139835
 30
0.0
 40
21.2504
100
AcDbArc
 50
64.9424
 51
115.0576
  0
ARC
  5
31A
100
AcDbEntity
  8
2
  6
CONTINUOUS
 62
     7
100
AcDbCircle
 10
2720.173773
 20
726.739835
 30
0.0
 40
2.0
100
AcDbArc
 50
0.0
 51
90.0
  0
ARC
  5
31B
100
AcDbEntity
  8
2
  6
CONTINUOUS
 62
     7
100
AcDbCircle
 10
2720.173773
 20
635.739835
 30
0.0
 40
2.0
100
AcDbArc
 50
-90.0
 51
0.0
  0
ARC
  5
31C
100
AcDbEntity
  8
2
  6
CONTINUOUS
 62
     7
100
AcDbCircle
 10
2711.173773
 20
726.739835
 30
0.0
 40
2.0
100
AcDbArc
 50
90.0
 51
180.0
  0
ARC
  5
31D
100
AcDbEntity
  8
2
  6
CONTINUOUS
 62
     7
100
AcDbCircle
 10
2711.173773
 20
635.739835
 30
0.0
 40
2.0
100
AcDbArc
 50
180.0
 51
-90.0
  0
ARC
  5
31E
100
AcDbEntity
  8
2
  6
CONTINUOUS
 62
     7
100
AcDbCircle
 10
2705.173773
 20
703.090235
 30
0.0
 40
4.0
100
AcDbArc
 50
-90.0
 51
0.0
  0
ARC
  5
31F
100
AcDbEntity
  8
2
  6
CONTINUOUS
 62
     7
100
AcDbCircle
 10
2705.173773
 20
659.390235
 30
0.0
 40
4.0
100
AcDbArc
 50
0.0
 51
90.0
  0
CIRCLE
  5
320
100
AcDbEntity
  8
2
  6
CONTINUOUS
 62
     7
100
AcDbCircle
 10
2523.173773
 20
627.390235
 30
0.0
 40
4.0416
  0
ARC
  5
321
100
AcDbEntity
  8
2
  6
CONTINUOUS
 62
     7
100
AcDbCircle
 10
2523.173773
 20
627.390235
 30
0.0
 40
7.0
100
AcDbArc
 50
90.0
 51
180.0
  0
CIRCLE
  5
322
100
AcDbEntity
  8
2
  6
CONTINUOUS
 62
     7
100
AcDbCircle
 10
2523.173773
 20
627.390235
 30
0.0
 40
2.5
  0
CIRCLE
  5
323
100
AcDbEntity
  8
2
  6
CONTINUOUS
 62
     7
100
AcDbCircle
 10
2523.173773
 20
627.390235
 30
0.0
 40
3.5
  0
ARC
  5
324
100
AcDbEntity
  8
2
  6
CONTINUOUS
 62
     7
100
AcDbCircle
 10
2517.673773
 20
634.890235
 30
0.0
 40
20.5
100
AcDbArc
 50
77.3196
 51
102.6804
  0
ARC
  5
325
100
AcDbEntity
  8
2
  6
CONTINUOUS
 62
     7
100
AcDbCircle
 10
2528.673773
 20
634.890235
 30
0.0
 40
20.5
100
AcDbArc
 50
77.3196
 51
102.6804
  0
CIRCLE
  5
326
100
AcDbEntity
  8
2
  6
CONTINUOUS
 62
     7
100
AcDbCircle
 10
2523.173773
 20
627.390235
 30
0.0
 40
2.0
  0
CIRCLE
  5
327
100
AcDbEntity
  8
2
  6
CONTINUOUS
 62
     7
100
AcDbCircle
 10
1723.173773
 20
627.390235
 30
0.0
 40
4.0416
  0
ARC
  5
328
100
AcDbEntity
  8
2
  6
CONTINUOUS
 62
     7
100
AcDbCircle
 10
1723.173773
 20
627.390235
 30
0.0
 40
7.0
100
AcDbArc
 50
90.0
 51
180.0
  0
CIRCLE
  5
329
100
AcDbEntity
  8
2
  6
CONTINUOUS
 62
     7
100
AcDbCircle
 10
1723.173773
 20
627.390235
 30
0.0
 40
2.5
  0
CIRCLE
  5
32A
100
AcDbEntity
  8
2
  6
CONTINUOUS
 62
     7
100
AcDbCircle
 10
1723.173773
 20
627.390235
 30
0.0
 40
3.5
  0
ARC
  5
32B
100
AcDbEntity
  8
2
  6
CONTINUOUS
 62
     7
100
AcDbCircle
 10
1717.673773
 20
634.890235
 30
0.0
 40
20.5
100
AcDbArc
 50
77.3196
 51
102.6804
  0
ARC
  5
32C
100
AcDbEntity
  8
2
  6
CONTINUOUS
 62
     7
100
AcDbCircle
 10
1728.673773
 20
634.890235
 30
0.0
 40
20.5
100
AcDbArc
 50
77.3196
 51
102.6804
  0
CIRCLE
  5
32D
100
AcDbEntity
  8
2
  6
CONTINUOUS
 62
     7
100
AcDbCircle
 10
1723.173773
 20
627.390235
 30
0.0
 40
2.0
  0
ARC
  5
32E
100
AcDbEntity
  8
2
  6
CONTINUOUS
 62
     7
100
AcDbCircle
 10
1723.173773
 20
651.139835
 30
0.0
 40
21.2504
100
AcDbArc
 50
64.9424
 51
115.0576
  0
CIRCLE
  5
32F
100
AcDbEntity
  8
2
  6
CONTINUOUS
 62
     7
100
AcDbCircle
 10
2123.173773
 20
627.390235
 30
0.0
 40
2.0
  0
ARC
  5
330
100
AcDbEntity
  8
2
  6
CONTINUOUS
 62
     7
100
AcDbCircle
 10
2123.173773
 20
651.139835
 30
0.0
 40
21.2504
100
AcDbArc
 50
64.9424
 51
115.0576
  0
CIRCLE
  5
331
100
AcDbEntity
  8
2
  6
CONTINUOUS
 62
     7
100
AcDbCircle
 10
2123.173773
 20
627.390235
 30
0.0
 40
4.0416
  0
ARC
  5
332
100
AcDbEntity
  8
2
  6
CONTINUOUS
 62
     7
100
AcDbCircle
 10
2123.173773
 20
627.390235
 30
0.0
 40
7.0
100
AcDbArc
 50
90.0
 51
180.0
  0
CIRCLE
  5
333
100
AcDbEntity
  8
2
  6
CONTINUOUS
 62
     7
100
AcDbCircle
 10
2123.173773
 20
627.390235
 30
0.0
 40
2.5
  0
CIRCLE
  5
334
100
AcDbEntity
  8
2
  6
CONTINUOUS
 62
     7
100
AcDbCircle
 10
2123.173773
 20
627.390235
 30
0.0
 40
3.5
  0
ARC
  5
335
100
AcDbEntity
  8
2
  6
CONTINUOUS
 62
     7
100
AcDbCircle
 10
2117.673773
 20
634.890235
 30
0.0
 40
20.5
100
AcDbArc
 50
77.3196
 51
102.6804
  0
ARC
  5
336
100
AcDbEntity
  8
2
  6
CONTINUOUS
 62
     7
100
AcDbCircle
 10
2128.673773
 20
634.890235
 30
0.0
 40
20.5
100
AcDbArc
 50
77.3196
 51
102.6804
  0
ARC
  5
337
100
AcDbEntity
  8
2
  6
CONTINUOUS
 62
     7
100
AcDbCircle
 10
1301.424973
 20
926.739835
 30
0.0
 40
2.0
100
AcDbArc
 50
0.0
 51
90.0
  0
ARC
  5
338
100
AcDbEntity
  8
2
  6
CONTINUOUS
 62
     7
100
AcDbCircle
 10
1301.424973
 20
835.739835
 30
0.0
 40
2.0
100
AcDbArc
 50
-90.0
 51
0.0
  0
ARC
  5
339
100
AcDbEntity
  8
2
  6
CONTINUOUS
 62
     7
100
AcDbCircle
 10
1292.424973
 20
926.739835
 30
0.0
 40
2.0
100
AcDbArc
 50
90.0
 51
180.0
  0
ARC
  5
33A
100
AcDbEntity
  8
2
  6
CONTINUOUS
 62
     7
100
AcDbCircle
 10
1292.424973
 20
835.739835
 30
0.0
 40
2.0
100
AcDbArc
 50
180.0
 51
-90.0
  0
ARC
  5
33B
100
AcDbEntity
  8
2
  6
CONTINUOUS
 62
     7
100
AcDbCircle
 10
1286.424973
 20
903.090235
 30
0.0
 40
4.0
100
AcDbArc
 50
-90.0
 51
0.0
  0
ARC
  5
33C
100
AcDbEntity
  8
2
  6
CONTINUOUS
 62
     7
100
AcDbCircle
 10
1286.424973
 20
859.390235
 30
0.0
 40
4.0
100
AcDbArc
 50
0.0
 51
90.0
  0
ARC
  5
33D
100
AcDbEntity
  8
2
  6
CONTINUOUS
 62
     7
100
AcDbCircle
 10
304.424973
 20
851.139835
 30
0.0
 40
21.2504
100
AcDbArc
 50
64.9424
 51
115.0576
  0
ARC
  5
33E
100
AcDbEntity
  8
2
  6
CONTINUOUS
 62
     7
100
AcDbCircle
 10
107.424973
 20
926.739835
 30
0.0
 40
2.0
100
AcDbArc
 50
90.0
 51
180.0
  0
ARC
  5
33F
100
AcDbEntity
  8
2
  6
CONTINUOUS
 62
     7
100
AcDbCircle
 10
107.424973
 20
835.739835
 30
0.0
 40
2.0
100
AcDbArc
 50
180.0
 51
-90.0
  0
ARC
  5
340
100
AcDbEntity
  8
2
  6
CONTINUOUS
 62
     7
100
AcDbCircle
 10
116.424973
 20
926.739835
 30
0.0
 40
2.0
100
AcDbArc
 50
0.0
 51
90.0
  0
ARC
  5
341
100
AcDbEntity
  8
2
  6
CONTINUOUS
 62
     7
100
AcDbCircle
 10
116.424973
 20
835.739835
 30
0.0
 40
2.0
100
AcDbArc
 50
-90.0
 51
0.0
  0
ARC
  5
342
100
AcDbEntity
  8
2
  6
CONTINUOUS
 62
     7
100
AcDbCircle
 10
122.424973
 20
903.090235
 30
0.0
 40
4.0
100
AcDbArc
 50
180.0
 51
-90.0
  0
ARC
  5
343
100
AcDbEntity
  8
2
  6
CONTINUOUS
 62
     7
100
AcDbCircle
 10
122.424973
 20
859.390235
 30
0.0
 40
4.0
100
AcDbArc
 50
90.0
 51
180.0
  0
CIRCLE
  5
344
100
AcDbEntity
  8
2
  6
CONTINUOUS
 62
     7
100
AcDbCircle
 10
304.424973
 20
827.390235
 30
0.0
 40
4.0416
  0
CIRCLE
  5
345
100
AcDbEntity
  8
2
  6
CONTINUOUS
 62
     7
100
AcDbCircle
 10
304.424973
 20
827.390235
 30
0.0
 40
2.5
  0
CIRCLE
  5
346
100
AcDbEntity
  8
2
  6
CONTINUOUS
 62
     7
100
AcDbCircle
 10
304.424973
 20
827.390235
 30
0.0
 40
3.5
  0
ARC
  5
347
100
AcDbEntity
  8
2
  6
CONTINUOUS
 62
     7
100
AcDbCircle
 10
309.924973
 20
834.890235
 30
0.0
 40
20.5
100
AcDbArc
 50
77.3196
 51
102.6804
  0
ARC
  5
348
100
AcDbEntity
  8
2
  6
CONTINUOUS
 62
     7
100
AcDbCircle
 10
298.924973
 20
834.890235
 30
0.0
 40
20.5
100
AcDbArc
 50
77.3196
 51
102.6804
  0
CIRCLE
  5
349
100
AcDbEntity
  8
2
  6
CONTINUOUS
 62
     7
100
AcDbCircle
 10
304.424973
 20
827.390235
 30
0.0
 40
2.0
  0
CIRCLE
  5
34A
100
AcDbEntity
  8
2
  6
CONTINUOUS
 62
     7
100
AcDbCircle
 10
1104.424973
 20
827.390235
 30
0.0
 40
4.0416
  0
CIRCLE
  5
34B
100
AcDbEntity
  8
2
  6
CONTINUOUS
 62
     7
100
AcDbCircle
 10
1104.424973
 20
827.390235
 30
0.0
 40
2.5
  0
CIRCLE
  5
34C
100
AcDbEntity
  8
2
  6
CONTINUOUS
 62
     7
100
AcDbCircle
 10
1104.424973
 20
827.390235
 30
0.0
 40
3.5
  0
ARC
  5
34D
100
AcDbEntity
  8
2
  6
CONTINUOUS
 62
     7
100
AcDbCircle
 10
1109.924973
 20
834.890235
 30
0.0
 40
20.5
100
AcDbArc
 50
77.3196
 51
102.6804
  0
ARC
  5
34E
100
AcDbEntity
  8
2
  6
CONTINUOUS
 62
     7
100
AcDbCircle
 10
1098.924973
 20
834.890235
 30
0.0
 40
20.5
100
AcDbArc
 50
77.3196
 51
102.6804
  0
CIRCLE
  5
34F
100
AcDbEntity
  8
2
  6
CONTINUOUS
 62
     7
100
AcDbCircle
 10
1104.424973
 20
827.390235
 30
0.0
 40
2.0
  0
ARC
  5
350
100
AcDbEntity
  8
2
  6
CONTINUOUS
 62
     7
100
AcDbCircle
 10
1104.424973
 20
851.139835
 30
0.0
 40
21.2504
100
AcDbArc
 50
64.9424
 51
115.0576
  0
CIRCLE
  5
351
100
AcDbEntity
  8
2
  6
CONTINUOUS
 62
     7
100
AcDbCircle
 10
704.424973
 20
827.390235
 30
0.0
 40
2.0
  0
ARC
  5
352
100
AcDbEntity
  8
2
  6
CONTINUOUS
 62
     7
100
AcDbCircle
 10
704.424973
 20
851.139835
 30
0.0
 40
21.2504
100
AcDbArc
 50
64.9424
 51
115.0576
  0
CIRCLE
  5
353
100
AcDbEntity
  8
2
  6
CONTINUOUS
 62
     7
100
AcDbCircle
 10
704.424973
 20
827.390235
 30
0.0
 40
4.0416
  0
CIRCLE
  5
354
100
AcDbEntity
  8
2
  6
CONTINUOUS
 62
     7
100
AcDbCircle
 10
704.424973
 20
827.390235
 30
0.0
 40
2.5
  0
CIRCLE
  5
355
100
AcDbEntity
  8
2
  6
CONTINUOUS
 62
     7
100
AcDbCircle
 10
704.424973
 20
827.390235
 30
0.0
 40
3.5
  0
ARC
  5
356
100
AcDbEntity
  8
2
  6
CONTINUOUS
 62
     7
100
AcDbCircle
 10
709.924973
 20
834.890235
 30
0.0
 40
20.5
100
AcDbArc
 50
77.3196
 51
102.6804
  0
ARC
  5
357
100
AcDbEntity
  8
2
  6
CONTINUOUS
 62
     7
100
AcDbCircle
 10
698.924973
 20
834.890235
 30
0.0
 40
20.5
100
AcDbArc
 50
77.3196
 51
102.6804
  0
ARC
  5
358
100
AcDbEntity
  8
2
  6
CONTINUOUS
 62
     7
100
AcDbCircle
 10
208.175373
 20
862.202235
 30
0.0
 40
1.8128
100
AcDbArc
 50
-133.6028
 51
-46.3972
  0
ARC
  5
359
100
AcDbEntity
  8
2
  6
CONTINUOUS
 62
     7
100
AcDbCircle
 10
204.424973
 20
866.889435
 30
0.0
 40
6.5
100
AcDbArc
 50
-112.6199
 51
-90.0
  0
ARC
  5
35A
100
AcDbEntity
  8
2
  6
CONTINUOUS
 62
     7
100
AcDbCircle
 10
204.424973
 20
866.889435
 30
0.0
 40
6.5
100
AcDbArc
 50
-90.0
 51
-67.3801
  0
ARC
  5
35B
100
AcDbEntity
  8
2
  6
CONTINUOUS
 62
     7
100
AcDbCircle
 10
200.675373
 20
862.202235
 30
0.0
 40
1.8128
100
AcDbArc
 50
-133.6028
 51
-46.3972
  0
ARC
  5
35C
100
AcDbEntity
  8
2
  6
CONTINUOUS
 62
     7
100
AcDbCircle
 10
1158.175373
 20
862.202235
 30
0.0
 40
1.8128
100
AcDbArc
 50
-133.6028
 51
-46.3972
  0
ARC
  5
35D
100
AcDbEntity
  8
2
  6
CONTINUOUS
 62
     7
100
AcDbCircle
 10
1154.424973
 20
866.889435
 30
0.0
 40
6.5
100
AcDbArc
 50
-112.6199
 51
-90.0
  0
ARC
  5
35E
100
AcDbEntity
  8
2
  6
CONTINUOUS
 62
     7
100
AcDbCircle
 10
1154.424973
 20
866.889435
 30
0.0
 40
6.5
100
AcDbArc
 50
-90.0
 51
-67.3801
  0
ARC
  5
35F
100
AcDbEntity
  8
2
  6
CONTINUOUS
 62
     7
100
AcDbCircle
 10
1150.675373
 20
862.202235
 30
0.0
 40
1.8128
100
AcDbArc
 50
-133.6028
 51
-46.3972
  0
ARC
  5
360
100
AcDbEntity
  8
2
  6
CONTINUOUS
 62
     7
100
AcDbCircle
 10
1490.564173
 20
681.239835
 30
0.0
 40
47.5
100
AcDbArc
 50
90.0
 51
180.0
  0
ARC
  5
361
100
AcDbEntity
  8
2
  6
CONTINUOUS
 62
     7
100
AcDbCircle
 10
1490.564173
 20
681.239835
 30
0.0
 40
25.5
100
AcDbArc
 50
90.0
 51
180.0
  0
ARC
  5
362
100
AcDbEntity
  8
2
  6
CENTER
 62
     7
100
AcDbCircle
 10
1490.564173
 20
681.239835
 30
0.0
 40
35.0
100
AcDbArc
 50
90.0
 51
180.0
  0
CIRCLE
  5
363
100
AcDbEntity
  8
2
  6
CONTINUOUS
 62
     7
100
AcDbCircle
 10
1465.815373
 20
705.988635
 30
0.0
 40
7.5
  0
CIRCLE
  5
364
100
AcDbEntity
  8
2
  6
CONTINUOUS
 62
     7
100
AcDbCircle
 10
1465.815373
 20
656.491035
 30
0.0
 40
7.5
  0
ARC
  5
365
100
AcDbEntity
  8
2
  6
CONTINUOUS
 62
     7
100
AcDbCircle
 10
1490.564173
 20
681.239835
 30
0.0
 40
25.5
100
AcDbArc
 50
180.0
 51
-90.0
  0
ARC
  5
366
100
AcDbEntity
  8
2
  6
CENTER
 62
     7
100
AcDbCircle
 10
1490.564173
 20
681.239835
 30
0.0
 40
35.0
100
AcDbArc
 50
180.0
 51
-90.0
  0
ARC
  5
367
100
AcDbEntity
  8
2
  6
CONTINUOUS
 62
     7
100
AcDbCircle
 10
1490.564173
 20
681.239835
 30
0.0
 40
47.5
100
AcDbArc
 50
180.0
 51
-90.0
  0
ARC
  5
368
100
AcDbEntity
  8
2
  6
CONTINUOUS
 62
     7
100
AcDbCircle
 10
1490.564173
 20
681.239835
 30
0.0
 40
10.8496
100
AcDbArc
 50
90.0
 51
180.0
  0
ARC
  5
369
100
AcDbEntity
  8
2
  6
CONTINUOUS
 62
     7
100
AcDbCircle
 10
1490.564173
 20
681.239835
 30
0.0
 40
7.1496
100
AcDbArc
 50
180.0
 51
-90.0
  0
ARC
  5
36A
100
AcDbEntity
  8
2
  6
CONTINUOUS
 62
     7
100
AcDbCircle
 10
1490.564173
 20
681.239835
 30
0.0
 40
10.8496
100
AcDbArc
 50
180.0
 51
-90.0
  0
ARC
  5
36B
100
AcDbEntity
  8
2
  6
CONTINUOUS
 62
     7
100
AcDbCircle
 10
1490.564173
 20
681.239835
 30
0.0
 40
7.1496
100
AcDbArc
 50
90.0
 51
-90.0
  0
ARC
  5
36C
100
AcDbEntity
  8
2
  6
CONTINUOUS
 62
     7
100
AcDbCircle
 10
1676.924173
 20
662.202235
 30
0.0
 40
1.8128
100
AcDbArc
 50
-133.6028
 51
-46.3972
  0
ARC
  5
36D
100
AcDbEntity
  8
2
  6
CONTINUOUS
 62
     7
100
AcDbCircle
 10
1673.173773
 20
666.890235
 30
0.0
 40
6.5
100
AcDbArc
 50
-112.6199
 51
-90.0
  0
ARC
  5
36E
100
AcDbEntity
  8
2
  6
CONTINUOUS
 62
     7
100
AcDbCircle
 10
1673.173773
 20
666.890235
 30
0.0
 40
6.5
100
AcDbArc
 50
-90.0
 51
-67.3801
  0
ARC
  5
36F
100
AcDbEntity
  8
2
  6
CONTINUOUS
 62
     7
100
AcDbCircle
 10
1669.424173
 20
662.202235
 30
0.0
 40
1.8128
100
AcDbArc
 50
-133.6028
 51
-46.3972
  0
ARC
  5
370
100
AcDbEntity
  8
2
  6
CONTINUOUS
 62
     7
100
AcDbCircle
 10
2626.924173
 20
662.202235
 30
0.0
 40
1.8128
100
AcDbArc
 50
-133.6028
 51
-46.3972
  0
ARC
  5
371
100
AcDbEntity
  8
2
  6
CONTINUOUS
 62
     7
100
AcDbCircle
 10
2623.173773
 20
666.890235
 30
0.0
 40
6.5
100
AcDbArc
 50
-112.6199
 51
-90.0
  0
ARC
  5
372
100
AcDbEntity
  8
2
  6
CONTINUOUS
 62
     7
100
AcDbCircle
 10
2623.173773
 20
666.890235
 30
0.0
 40
6.5
100
AcDbArc
 50
-90.0
 51
-67.3801
  0
ARC
  5
373
100
AcDbEntity
  8
2
  6
CONTINUOUS
 62
     7
100
AcDbCircle
 10
2619.424173
 20
662.202235
 30
0.0
 40
1.8128
100
AcDbArc
 50
-133.6028
 51
-46.3972
  0
ARC
  5
374
100
AcDbEntity
  8
2
  6
CONTINUOUS
 62
     7
100
AcDbCircle
 10
1104.424973
 20
827.390235
 30
0.0
 40
7.0
100
AcDbArc
 50
90.0
 51
180.0
  0
ARC
  5
375
100
AcDbEntity
  8
2
  6
CONTINUOUS
 62
     7
100
AcDbCircle
 10
704.424973
 20
827.390235
 30
0.0
 40
7.0
100
AcDbArc
 50
90.0
 51
180.0
  0
ARC
  5
376
100
AcDbEntity
  8
2
  6
CONTINUOUS
 62
     7
100
AcDbCircle
 10
304.424973
 20
827.390235
 30
0.0
 40
7.0
100
AcDbArc
 50
90.0
 51
180.0
  0
ARC
  5
377
100
AcDbEntity
  8
2
  6
CONTINUOUS
 62
     7
100
AcDbCircle
 10
199.924973
 20
732.890235
 30
0.0
 40
2.5
100
AcDbArc
 50
180.0
 51
0.0
  0
ARC
  5
378
100
AcDbEntity
  8
2
  6
CONTINUOUS
 62
     7
100
AcDbCircle
 10
199.924973
 20
836.889435
 30
0.0
 40
2.5
100
AcDbArc
 50
0.0
 51
180.0
  0
CIRCLE
  5
379
100
AcDbEntity
  8
2
  6
CONTINUOUS
 62
     7
100
AcDbCircle
 10
199.924973
 20
744.890235
 30
0.0
 40
11.0
  0
CIRCLE
  5
37A
100
AcDbEntity
  8
2
  6
CONTINUOUS
 62
     7
100
AcDbCircle
 10
199.924973
 20
824.890235
 30
0.0
 40
7.0
  0
CIRCLE
  5
37B
100
AcDbEntity
  8
2
  6
CONTINUOUS
 62
     7
100
AcDbCircle
 10
199.924973
 20
824.890235
 30
0.0
 40
11.0
  0
CIRCLE
  5
37C
100
AcDbEntity
  8
2
  6
CONTINUOUS
 62
     7
100
AcDbCircle
 10
199.924973
 20
824.890235
 30
0.0
 40
5.0
  0
CIRCLE
  5
37D
100
AcDbEntity
  8
2
  6
CONTINUOUS
 62
     7
100
AcDbCircle
 10
199.924973
 20
824.890235
 30
0.0
 40
4.2
  0
CIRCLE
  5
37E
100
AcDbEntity
  8
2
  6
CONTINUOUS
 62
     7
100
AcDbCircle
 10
199.924973
 20
824.890235
 30
0.0
 40
3.2504
  0
CIRCLE
  5
37F
100
AcDbEntity
  8
2
  6
CONTINUOUS
 62
     7
100
AcDbCircle
 10
199.924973
 20
744.890235
 30
0.0
 40
5.0
  0
CIRCLE
  5
380
100
AcDbEntity
  8
2
  6
CONTINUOUS
 62
     7
100
AcDbCircle
 10
199.924973
 20
744.890235
 30
0.0
 40
4.2
  0
CIRCLE
  5
381
100
AcDbEntity
  8
2
  6
CONTINUOUS
 62
     7
100
AcDbCircle
 10
199.924973
 20
744.890235
 30
0.0
 40
7.0
  0
CIRCLE
  5
382
100
AcDbEntity
  8
2
  6
CONTINUOUS
 62
     7
100
AcDbCircle
 10
199.924973
 20
744.890235
 30
0.0
 40
3.2504
  0
ARC
  5
383
100
AcDbEntity
  8
2
  6
CONTINUOUS
 62
     7
100
AcDbCircle
 10
1149.924973
 20
732.890235
 30
0.0
 40
2.5
100
AcDbArc
 50
180.0
 51
0.0
  0
ARC
  5
384
100
AcDbEntity
  8
2
  6
CONTINUOUS
 62
     7
100
AcDbCircle
 10
1149.924973
 20
836.889435
 30
0.0
 40
2.5
100
AcDbArc
 50
0.0
 51
180.0
  0
CIRCLE
  5
385
100
AcDbEntity
  8
2
  6
CONTINUOUS
 62
     7
100
AcDbCircle
 10
1149.924973
 20
744.890235
 30
0.0
 40
11.0
  0
CIRCLE
  5
386
100
AcDbEntity
  8
2
  6
CONTINUOUS
 62
     7
100
AcDbCircle
 10
1149.924973
 20
824.890235
 30
0.0
 40
7.0
  0
CIRCLE
  5
387
100
AcDbEntity
  8
2
  6
CONTINUOUS
 62
     7
100
AcDbCircle
 10
1149.924973
 20
824.890235
 30
0.0
 40
11.0
  0
CIRCLE
  5
388
100
AcDbEntity
  8
2
  6
CONTINUOUS
 62
     7
100
AcDbCircle
 10
1149.924973
 20
824.890235
 30
0.0
 40
5.0
  0
CIRCLE
  5
389
100
AcDbEntity
  8
2
  6
CONTINUOUS
 62
     7
100
AcDbCircle
 10
1149.924973
 20
824.890235
 30
0.0
 40
4.2
  0
CIRCLE
  5
38A
100
AcDbEntity
  8
2
  6
CONTINUOUS
 62
     7
100
AcDbCircle
 10
1149.924973
 20
824.890235
 30
0.0
 40
3.2504
  0
CIRCLE
  5
38B
100
AcDbEntity
  8
2
  6
CONTINUOUS
 62
     7
100
AcDbCircle
 10
1149.924973
 20
744.890235
 30
0.0
 40
5.0
  0
CIRCLE
  5
38C
100
AcDbEntity
  8
2
  6
CONTINUOUS
 62
     7
100
AcDbCircle
 10
1149.924973
 20
744.890235
 30
0.0
 40
4.2
  0
CIRCLE
  5
38D
100
AcDbEntity
  8
2
  6
CONTINUOUS
 62
     7
100
AcDbCircle
 10
1149.924973
 20
744.890235
 30
0.0
 40
7.0
  0
CIRCLE
  5
38E
100
AcDbEntity
  8
2
  6
CONTINUOUS
 62
     7
100
AcDbCircle
 10
1149.924973
 20
744.890235
 30
0.0
 40
3.2504
  0
ARC
  5
38F
100
AcDbEntity
  8
2
  6
CONTINUOUS
 62
     7
100
AcDbCircle
 10
1668.673773
 20
532.890235
 30
0.0
 40
2.5
100
AcDbArc
 50
180.0
 51
0.0
  0
ARC
  5
390
100
AcDbEntity
  8
2
  6
CONTINUOUS
 62
     7
100
AcDbCircle
 10
1668.673773
 20
636.889435
 30
0.0
 40
2.5
100
AcDbArc
 50
0.0
 51
180.0
  0
CIRCLE
  5
391
100
AcDbEntity
  8
2
  6
CONTINUOUS
 62
     7
100
AcDbCircle
 10
1668.673773
 20
544.890235
 30
0.0
 40
11.0
  0
CIRCLE
  5
392
100
AcDbEntity
  8
2
  6
CONTINUOUS
 62
     7
100
AcDbCircle
 10
1668.673773
 20
624.890235
 30
0.0
 40
7.0
  0
CIRCLE
  5
393
100
AcDbEntity
  8
2
  6
CONTINUOUS
 62
     7
100
AcDbCircle
 10
1668.673773
 20
624.890235
 30
0.0
 40
11.0
  0
CIRCLE
  5
394
100
AcDbEntity
  8
2
  6
CONTINUOUS
 62
     7
100
AcDbCircle
 10
1668.673773
 20
624.890235
 30
0.0
 40
5.0
  0
CIRCLE
  5
395
100
AcDbEntity
  8
2
  6
CONTINUOUS
 62
     7
100
AcDbCircle
 10
1668.673773
 20
624.890235
 30
0.0
 40
4.2
  0
CIRCLE
  5
396
100
AcDbEntity
  8
2
  6
CONTINUOUS
 62
     7
100
AcDbCircle
 10
1668.673773
 20
624.890235
 30
0.0
 40
3.2504
  0
CIRCLE
  5
397
100
AcDbEntity
  8
2
  6
CONTINUOUS
 62
     7
100
AcDbCircle
 10
1668.673773
 20
544.890235
 30
0.0
 40
5.0
  0
CIRCLE
  5
398
100
AcDbEntity
  8
2
  6
CONTINUOUS
 62
     7
100
AcDbCircle
 10
1668.673773
 20
544.890235
 30
0.0
 40
4.2
  0
CIRCLE
  5
399
100
AcDbEntity
  8
2
  6
CONTINUOUS
 62
     7
100
AcDbCircle
 10
1668.673773
 20
544.890235
 30
0.0
 40
7.0
  0
CIRCLE
  5
39A
100
AcDbEntity
  8
2
  6
CONTINUOUS
 62
     7
100
AcDbCircle
 10
1668.673773
 20
544.890235
 30
0.0
 40
3.2504
  0
ARC
  5
39B
100
AcDbEntity
  8
2
  6
CONTINUOUS
 62
     7
100
AcDbCircle
 10
2618.673773
 20
532.890235
 30
0.0
 40
2.5
100
AcDbArc
 50
180.0
 51
0.0
  0
ARC
  5
39C
100
AcDbEntity
  8
2
  6
CONTINUOUS
 62
     7
100
AcDbCircle
 10
2618.673773
 20
636.889435
 30
0.0
 40
2.5
100
AcDbArc
 50
0.0
 51
180.0
  0
CIRCLE
  5
39D
100
AcDbEntity
  8
2
  6
CONTINUOUS
 62
     7
100
AcDbCircle
 10
2618.673773
 20
544.890235
 30
0.0
 40
11.0
  0
CIRCLE
  5
39E
100
AcDbEntity
  8
2
  6
CONTINUOUS
 62
     7
100
AcDbCircle
 10
2618.673773
 20
624.890235
 30
0.0
 40
7.0
  0
CIRCLE
  5
39F
100
AcDbEntity
  8
2
  6
CONTINUOUS
 62
     7
100
AcDbCircle
 10
2618.673773
 20
624.890235
 30
0.0
 40
11.0
  0
CIRCLE
  5
3A0
100
AcDbEntity
  8
2
  6
CONTINUOUS
 62
     7
100
AcDbCircle
 10
2618.673773
 20
624.890235
 30
0.0
 40
5.0
  0
CIRCLE
  5
3A1
100
AcDbEntity
  8
2
  6
CONTINUOUS
 62
     7
100
AcDbCircle
 10
2618.673773
 20
624.890235
 30
0.0
 40
4.2
  0
CIRCLE
  5
3A2
100
AcDbEntity
  8
2
  6
CONTINUOUS
 62
     7
100
AcDbCircle
 10
2618.673773
 20
624.890235
 30
0.0
 40
3.2504
  0
CIRCLE
  5
3A3
100
AcDbEntity
  8
2
  6
CONTINUOUS
 62
     7
100
AcDbCircle
 10
2618.673773
 20
544.890235
 30
0.0
 40
5.0
  0
CIRCLE
  5
3A4
100
AcDbEntity
  8
2
  6
CONTINUOUS
 62
     7
100
AcDbCircle
 10
2618.673773
 20
544.890235
 30
0.0
 40
4.2
  0
CIRCLE
  5
3A5
100
AcDbEntity
  8
2
  6
CONTINUOUS
 62
     7
100
AcDbCircle
 10
2618.673773
 20
544.890235
 30
0.0
 40
7.0
  0
CIRCLE
  5
3A6
100
AcDbEntity
  8
2
  6
CONTINUOUS
 62
     7
100
AcDbCircle
 10
2618.673773
 20
544.890235
 30
0.0
 40
3.2504
  0
LINE
  5
3A7
100
AcDbEntity
  8
2
  6
CONTINUOUS
 62
     7
100
AcDbLine
 10
904.424973
 20
892.090235
 30
0.0
 11
1004.424973
 21
892.090235
 31
0.0
  0
LINE
  5
3A8
100
AcDbEntity
  8
2
  6
CONTINUOUS
 62
     7
100
AcDbLine
 10
124.424973
 20
899.090235
 30
0.0
 11
124.424973
 21
881.239835
 31
0.0
  0
LINE
  5
3A9
100
AcDbEntity
  8
2
  6
CONTINUOUS
 62
     7
100
AcDbLine
 10
118.424973
 20
926.739835
 30
0.0
 11
118.424973
 21
881.239835
 31
0.0
  0
LINE
  5
3AA
100
AcDbEntity
  8
2
  6
CONTINUOUS
 62
     7
100
AcDbLine
 10
105.424973
 20
926.739835
 30
0.0
 11
105.424973
 21
881.239835
 31
0.0
  0
LINE
  5
3AB
100
AcDbEntity
  8
2
  6
CONTINUOUS
 62
     7
100
AcDbLine
 10
129.424973
 20
892.090235
 30
0.0
 11
904.424973
 21
892.090235
 31
0.0
  0
LINE
  5
3AC
100
AcDbEntity
  8
2
  6
CONTINUOUS
 62
     7
100
AcDbLine
 10
1279.424973
 20
881.239835
 30
0.0
 11
1279.424973
 21
892.090235
 31
0.0
  0
LINE
  5
3AD
100
AcDbEntity
  8
2
  6
CONTINUOUS
 62
     7
100
AcDbLine
 10
129.424973
 20
881.239835
 30
0.0
 11
129.424973
 21
892.090235
 31
0.0
  0
LINE
  5
3AE
100
AcDbEntity
  8
2
  6
CONTINUOUS
 62
     7
100
AcDbLine
 10
1284.424973
 20
899.090235
 30
0.0
 11
1284.424973
 21
881.239835
 31
0.0
  0
LINE
  5
3AF
100
AcDbEntity
  8
2
  6
CONTINUOUS
 62
     7
100
AcDbLine
 10
1290.424973
 20
926.739835
 30
0.0
 11
1290.424973
 21
881.239835
 31
0.0
  0
LINE
  5
3B0
100
AcDbEntity
  8
2
  6
CONTINUOUS
 62
     7
100
AcDbLine
 10
1303.424973
 20
926.739835
 30
0.0
 11
1303.424973
 21
881.239835
 31
0.0
  0
LINE
  5
3B1
100
AcDbEntity
  8
2
  6
CONTINUOUS
 62
     7
100
AcDbLine
 10
1279.424973
 20
892.090235
 30
0.0
 11
1004.424973
 21
892.090235
 31
0.0
  0
LINE
  5
3B2
100
AcDbEntity
  8
2
  6
CONTINUOUS
 62
     7
100
AcDbLine
 10
1543.173773
 20
699.090235
 30
0.0
 11
1543.173773
 21
681.239835
 31
0.0
  0
LINE
  5
3B3
100
AcDbEntity
  8
2
  6
CONTINUOUS
 62
     7
100
AcDbLine
 10
1537.173773
 20
726.739835
 30
0.0
 11
1537.173773
 21
681.239835
 31
0.0
  0
LINE
  5
3B4
100
AcDbEntity
  8
2
  6
CONTINUOUS
 62
     7
100
AcDbLine
 10
1524.173773
 20
726.739835
 30
0.0
 11
1524.173773
 21
681.239835
 31
0.0
  0
LINE
  5
3B5
100
AcDbEntity
  8
2
  6
CONTINUOUS
 62
     7
100
AcDbLine
 10
1548.173773
 20
692.090235
 30
0.0
 11
1923.173773
 21
692.090235
 31
0.0
  0
LINE
  5
3B6
100
AcDbEntity
  8
2
  6
CONTINUOUS
 62
     7
100
AcDbLine
 10
1548.173773
 20
681.239835
 30
0.0
 11
1548.173773
 21
692.090235
 31
0.0
  0
LINE
  5
3B7
100
AcDbEntity
  8
2
  6
CONTINUOUS
 62
     7
100
AcDbLine
 10
2698.173773
 20
681.239835
 30
0.0
 11
2698.173773
 21
692.090235
 31
0.0
  0
LINE
  5
3B8
100
AcDbEntity
  8
2
  6
CONTINUOUS
 62
     7
100
AcDbLine
 10
2703.173773
 20
699.090235
 30
0.0
 11
2703.173773
 21
681.239835
 31
0.0
  0
LINE
  5
3B9
100
AcDbEntity
  8
2
  6
CONTINUOUS
 62
     7
100
AcDbLine
 10
2709.173773
 20
726.739835
 30
0.0
 11
2709.173773
 21
681.239835
 31
0.0
  0
LINE
  5
3BA
100
AcDbEntity
  8
2
  6
CONTINUOUS
 62
     7
100
AcDbLine
 10
2722.173773
 20
726.739835
 30
0.0
 11
2722.173773
 21
681.239835
 31
0.0
  0
LINE
  5
3BB
100
AcDbEntity
  8
2
  6
CONTINUOUS
 62
     7
100
AcDbLine
 10
2698.173773
 20
692.090235
 30
0.0
 11
1923.173773
 21
692.090235
 31
0.0
  0
LINE
  5
3BC
100
AcDbEntity
  8
2
  6
CONTINUOUS
 62
     7
100
AcDbLine
 10
207.424973
 20
890.389435
 30
0.0
 11
207.424973
 21
870.390235
 31
0.0
  0
LINE
  5
3BD
100
AcDbEntity
  8
2
  6
CONTINUOUS
 62
     7
100
AcDbLine
 10
201.424973
 20
890.389435
 30
0.0
 11
201.424973
 21
870.390235
 31
0.0
  0
ARC
  5
3BE
100
AcDbEntity
  8
2
  6
CONTINUOUS
 62
     7
100
AcDbCircle
 10
204.424973
 20
890.389435
 30
0.0
 40
3.0
100
AcDbArc
 50
0.0
 51
180.0
  0
LINE
  5
3BF
100
AcDbEntity
  8
2
  6
CONTINUOUS
 62
     7
100
AcDbLine
 10
1157.424973
 20
890.389435
 30
0.0
 11
1157.424973
 21
870.390235
 31
0.0
  0
LINE
  5
3C0
100
AcDbEntity
  8
2
  6
CONTINUOUS
 62
     7
100
AcDbLine
 10
1151.424973
 20
890.389435
 30
0.0
 11
1151.424973
 21
870.390235
 31
0.0
  0
ARC
  5
3C1
100
AcDbEntity
  8
2
  6
CONTINUOUS
 62
     7
100
AcDbCircle
 10
1154.424973
 20
890.389435
 30
0.0
 40
3.0
100
AcDbArc
 50
0.0
 51
180.0
  0
LINE
  5
3C2
100
AcDbEntity
  8
2
  6
CONTINUOUS
 62
     7
100
AcDbLine
 10
1676.173773
 20
690.389435
 30
0.0
 11
1676.173773
 21
670.390235
 31
0.0
  0
LINE
  5
3C3
100
AcDbEntity
  8
2
  6
CONTINUOUS
 62
     7
100
AcDbLine
 10
1670.173773
 20
690.389435
 30
0.0
 11
1670.173773
 21
670.390235
 31
0.0
  0
ARC
  5
3C4
100
AcDbEntity
  8
2
  6
CONTINUOUS
 62
     7
100
AcDbCircle
 10
1673.173773
 20
690.389435
 30
0.0
 40
3.0
100
AcDbArc
 50
0.0
 51
180.0
  0
LINE
  5
3C5
100
AcDbEntity
  8
2
  6
CONTINUOUS
 62
     7
100
AcDbLine
 10
2626.173773
 20
690.389435
 30
0.0
 11
2626.173773
 21
670.390235
 31
0.0
  0
LINE
  5
3C6
100
AcDbEntity
  8
2
  6
CONTINUOUS
 62
     7
100
AcDbLine
 10
2620.173773
 20
690.389435
 30
0.0
 11
2620.173773
 21
670.390235
 31
0.0
  0
ARC
  5
3C7
100
AcDbEntity
  8
2
  6
CONTINUOUS
 62
     7
100
AcDbCircle
 10
2623.173773
 20
690.389435
 30
0.0
 40
3.0
100
AcDbArc
 50
0.0
 51
180.0
  0
INSERT
  5
3D3
100
AcDbEntity
  8
2
  6
CONTINUOUS
 62
     7
100
AcDbBlockReference
  2
*G1
 10
0.0
 20
0.0
 30
0.0
  0
INSERT
  5
3DF
100
AcDbEntity
  8
2
  6
CONTINUOUS
 62
     7
100
AcDbBlockReference
  2
*G2
 10
0.0
 20
0.0
 30
0.0
  0
INSERT
  5
3EB
100
AcDbEntity
  8
2
  6
CONTINUOUS
 62
     7
100
AcDbBlockReference
  2
*G3
 10
0.0
 20
0.0
 30
0.0
  0
INSERT
  5
3F7
100
AcDbEntity
  8
2
  6
CONTINUOUS
 62
     7
100
AcDbBlockReference
  2
*G4
 10
0.0
 20
0.0
 30
0.0
  0
INSERT
  5
403
100
AcDbEntity
  8
2
  6
CONTINUOUS
 62
     7
100
AcDbBlockReference
  2
*G5
 10
0.0
 20
0.0
 30
0.0
  0
INSERT
  5
40F
100
AcDbEntity
  8
2
  6
CONTINUOUS
 62
     7
100
AcDbBlockReference
  2
*G6
 10
0.0
 20
0.0
 30
0.0
  0
INSERT
  5
41B
100
AcDbEntity
  8
2
  6
CONTINUOUS
 62
     7
100
AcDbBlockReference
  2
*G7
 10
0.0
 20
0.0
 30
0.0
  0
LINE
  5
41C
100
AcDbEntity
  8
2
  6
CONTINUOUS
 62
     7
100
AcDbLine
 10
916.424833
 20
892.090235
 30
0.0
 11
913.424693
 21
895.090374
 31
0.0
  0
LINE
  5
41D
100
AcDbEntity
  8
2
  6
CONTINUOUS
 62
     7
100
AcDbLine
 10
892.425112
 20
892.090235
 30
0.0
 11
895.425252
 21
895.090374
 31
0.0
  0
LINE
  5
41E
100
AcDbEntity
  8
2
  6
CONTINUOUS
 62
     7
100
AcDbLine
 10
913.424693
 20
912.090235
 30
0.0
 11
912.424413
 21
913.089815
 31
0.0
  0
LINE
  5
41F
100
AcDbEntity
  8
2
  6
CONTINUOUS
 62
     7
100
AcDbLine
 10
908.424693
 20
924.790081
 30
0.0
 11
908.424693
 21
916.789941
 31
0.0
  0
LINE
  5
420
100
AcDbEntity
  8
2
  6
CONTINUOUS
 62
     7
100
AcDbLine
 10
908.424693
 20
924.790081
 30
0.0
 11
904.424973
 21
924.790081
 31
0.0
  0
LINE
  5
421
100
AcDbEntity
  8
2
  6
CONTINUOUS
 62
     7
100
AcDbLine
 10
895.425252
 20
912.090235
 30
0.0
 11
896.424833
 21
913.089815
 31
0.0
  0
LINE
  5
422
100
AcDbEntity
  8
2
  6
CONTINUOUS
 62
     7
100
AcDbLine
 10
900.424553
 20
924.790081
 30
0.0
 11
900.424553
 21
916.789941
 31
0.0
  0
LINE
  5
423
100
AcDbEntity
  8
2
  6
CONTINUOUS
 62
     7
100
AcDbLine
 10
900.424553
 20
924.790081
 30
0.0
 11
904.424973
 21
924.790081
 31
0.0
  0
LINE
  5
424
100
AcDbEntity
  8
2
  6
CONTINUOUS
 62
     7
100
AcDbLine
 10
897.749206
 20
916.789941
 30
0.0
 11
904.424973
 21
916.789941
 31
0.0
  0
LINE
  5
425
100
AcDbEntity
  8
2
  6
CONTINUOUS
 62
     7
100
AcDbLine
 10
911.100039
 20
916.789941
 30
0.0
 11
904.424973
 21
916.789941
 31
0.0
  0
LINE
  5
426
100
AcDbEntity
  8
2
  6
CONTINUOUS
 62
     7
100
AcDbLine
 10
896.424833
 20
913.089815
 30
0.0
 11
904.424973
 21
913.089815
 31
0.0
  0
LINE
  5
427
100
AcDbEntity
  8
2
  6
CONTINUOUS
 62
     7
100
AcDbLine
 10
912.424413
 20
913.089815
 30
0.0
 11
904.424973
 21
913.089815
 31
0.0
  0
LINE
  5
428
100
AcDbEntity
  8
2
  6
CONTINUOUS
 62
     7
100
AcDbLine
 10
895.425252
 20
895.090374
 30
0.0
 11
904.424973
 21
895.090374
 31
0.0
  0
LINE
  5
429
100
AcDbEntity
  8
2
  6
CONTINUOUS
 62
     7
100
AcDbLine
 10
913.424693
 20
895.090374
 30
0.0
 11
904.424973
 21
895.090374
 31
0.0
  0
LINE
  5
42A
100
AcDbEntity
  8
2
  6
CONTINUOUS
 62
     7
100
AcDbLine
 10
895.425252
 20
912.090235
 30
0.0
 11
895.425252
 21
895.090374
 31
0.0
  0
LINE
  5
42B
100
AcDbEntity
  8
2
  6
CONTINUOUS
 62
     7
100
AcDbLine
 10
913.424693
 20
912.090235
 30
0.0
 11
913.424693
 21
895.090374
 31
0.0
  0
LINE
  5
42C
100
AcDbEntity
  8
2
  6
CONTINUOUS
 62
     7
100
AcDbLine
 10
911.003254
 20
913.089815
 30
0.0
 11
911.100039
 21
916.789941
 31
0.0
  0
LINE
  5
42D
100
AcDbEntity
  8
2
  6
CONTINUOUS
 62
     7
100
AcDbLine
 10
897.846284
 20
913.089815
 30
0.0
 11
897.749206
 21
916.789941
 31
0.0
  0
LINE
  5
42E
100
AcDbEntity
  8
2
  6
CONTINUOUS
 62
     7
100
AcDbLine
 10
1935.173633
 20
692.090235
 30
0.0
 11
1932.173493
 21
695.090374
 31
0.0
  0
LINE
  5
42F
100
AcDbEntity
  8
2
  6
CONTINUOUS
 62
     7
100
AcDbLine
 10
1911.173912
 20
692.090235
 30
0.0
 11
1914.174052
 21
695.090374
 31
0.0
  0
LINE
  5
430
100
AcDbEntity
  8
2
  6
CONTINUOUS
 62
     7
100
AcDbLine
 10
1932.173493
 20
712.090235
 30
0.0
 11
1931.173213
 21
713.089815
 31
0.0
  0
LINE
  5
431
100
AcDbEntity
  8
2
  6
CONTINUOUS
 62
     7
100
AcDbLine
 10
1927.173493
 20
724.790081
 30
0.0
 11
1927.173493
 21
716.789941
 31
0.0
  0
LINE
  5
432
100
AcDbEntity
  8
2
  6
CONTINUOUS
 62
     7
100
AcDbLine
 10
1927.173493
 20
724.790081
 30
0.0
 11
1923.173773
 21
724.790081
 31
0.0
  0
LINE
  5
433
100
AcDbEntity
  8
2
  6
CONTINUOUS
 62
     7
100
AcDbLine
 10
1914.174052
 20
712.090235
 30
0.0
 11
1915.173633
 21
713.089815
 31
0.0
  0
LINE
  5
434
100
AcDbEntity
  8
2
  6
CONTINUOUS
 62
     7
100
AcDbLine
 10
1919.173353
 20
724.790081
 30
0.0
 11
1919.173353
 21
716.789941
 31
0.0
  0
LINE
  5
435
100
AcDbEntity
  8
2
  6
CONTINUOUS
 62
     7
100
AcDbLine
 10
1919.173353
 20
724.790081
 30
0.0
 11
1923.173773
 21
724.790081
 31
0.0
  0
LINE
  5
436
100
AcDbEntity
  8
2
  6
CONTINUOUS
 62
     7
100
AcDbLine
 10
1916.498006
 20
716.789941
 30
0.0
 11
1923.173773
 21
716.789941
 31
0.0
  0
LINE
  5
437
100
AcDbEntity
  8
2
  6
CONTINUOUS
 62
     7
100
AcDbLine
 10
1929.848839
 20
716.789941
 30
0.0
 11
1923.173773
 21
716.789941
 31
0.0
  0
LINE
  5
438
100
AcDbEntity
  8
2
  6
CONTINUOUS
 62
     7
100
AcDbLine
 10
1915.173633
 20
713.089815
 30
0.0
 11
1923.173773
 21
713.089815
 31
0.0
  0
LINE
  5
439
100
AcDbEntity
  8
2
  6
CONTINUOUS
 62
     7
100
AcDbLine
 10
1931.173213
 20
713.089815
 30
0.0
 11
1923.173773
 21
713.089815
 31
0.0
  0
LINE
  5
43A
100
AcDbEntity
  8
2
  6
CONTINUOUS
 62
     7
100
AcDbLine
 10
1914.174052
 20
695.090374
 30
0.0
 11
1923.173773
 21
695.090374
 31
0.0
  0
LINE
  5
43B
100
AcDbEntity
  8
2
  6
CONTINUOUS
 62
     7
100
AcDbLine
 10
1932.173493
 20
695.090374
 30
0.0
 11
1923.173773
 21
695.090374
 31
0.0
  0
LINE
  5
43C
100
AcDbEntity
  8
2
  6
CONTINUOUS
 62
     7
100
AcDbLine
 10
1914.174052
 20
712.090235
 30
0.0
 11
1914.174052
 21
695.090374
 31
0.0
  0
LINE
  5
43D
100
AcDbEntity
  8
2
  6
CONTINUOUS
 62
     7
100
AcDbLine
 10
1932.173493
 20
712.090235
 30
0.0
 11
1932.173493
 21
695.090374
 31
0.0
  0
LINE
  5
43E
100
AcDbEntity
  8
2
  6
CONTINUOUS
 62
     7
100
AcDbLine
 10
1929.752054
 20
713.089815
 30
0.0
 11
1929.848839
 21
716.789941
 31
0.0
  0
LINE
  5
43F
100
AcDbEntity
  8
2
  6
CONTINUOUS
 62
     7
100
AcDbLine
 10
1916.595084
 20
713.089815
 30
0.0
 11
1916.498006
 21
716.789941
 31
0.0
  0
LINE
  5
440
100
AcDbEntity
  8
2
  6
CONTINUOUS
 62
     7
100
AcDbLine
 10
1106.445795
 20
1114.063112
 30
0.0
 11
1106.445795
 21
1111.063112
 31
0.0
  0
LINE
  5
441
100
AcDbEntity
  8
2
  6
CONTINUOUS
 62
     7
100
AcDbLine
 10
1102.404473
 20
1114.063112
 30
0.0
 11
1102.404473
 21
1111.063112
 31
0.0
  0
LINE
  5
442
100
AcDbEntity
  8
2
  6
CONTINUOUS
 62
     7
100
AcDbLine
 10
1100.424973
 20
1114.063112
 30
0.0
 11
1108.424973
 21
1114.063112
 31
0.0
  0
LINE
  5
443
100
AcDbEntity
  8
2
  6
CONTINUOUS
 62
     7
100
AcDbLine
 10
1104.876316
 20
1115.063112
 30
0.0
 11
1103.932808
 21
1114.063112
 31
0.0
  0
LINE
  5
444
100
AcDbEntity
  8
2
  6
CONTINUOUS
 62
     7
100
AcDbLine
 10
1097.424973
 20
1117.063112
 30
0.0
 11
1097.424973
 21
1115.063112
 31
0.0
  0
LINE
  5
445
100
AcDbEntity
  8
2
  6
CONTINUOUS
 62
     7
100
AcDbLine
 10
1097.424973
 20
1115.063112
 30
0.0
 11
1111.424973
 21
1115.063112
 31
0.0
  0
LINE
  5
446
100
AcDbEntity
  8
2
  6
CONTINUOUS
 62
     7
100
AcDbLine
 10
1111.424973
 20
1115.063112
 30
0.0
 11
1111.424973
 21
1117.063112
 31
0.0
  0
LINE
  5
447
100
AcDbEntity
  8
2
  6
CONTINUOUS
 62
     7
100
AcDbLine
 10
1097.424973
 20
1117.063112
 30
0.0
 11
1106.424973
 21
1117.063112
 31
0.0
  0
LINE
  5
448
100
AcDbEntity
  8
2
  6
CONTINUOUS
 62
     7
100
AcDbLine
 10
1106.424973
 20
1117.063112
 30
0.0
 11
1106.424973
 21
1118.536363
 31
0.0
  0
LINE
  5
449
100
AcDbEntity
  8
2
  6
CONTINUOUS
 62
     7
100
AcDbLine
 10
1106.424973
 20
1118.536363
 30
0.0
 11
1111.424973
 21
1118.536363
 31
0.0
  0
LINE
  5
44A
100
AcDbEntity
  8
2
  6
CONTINUOUS
 62
     7
100
AcDbLine
 10
1111.424973
 20
1118.536363
 30
0.0
 11
1111.424973
 21
1117.063112
 31
0.0
  0
LINE
  5
44B
100
AcDbEntity
  8
2
  6
CONTINUOUS
 62
     7
100
AcDbLine
 10
1106.424973
 20
1117.063112
 30
0.0
 11
1106.424973
 21
1115.063112
 31
0.0
  0
LINE
  5
44C
100
AcDbEntity
  8
2
  6
CONTINUOUS
 62
     7
100
AcDbLine
 10
1094.424973
 20
1119.213112
 30
0.0
 11
1094.424973
 21
1117.563112
 31
0.0
  0
LINE
  5
44D
100
AcDbEntity
  8
2
  6
CONTINUOUS
 62
     7
100
AcDbLine
 10
1094.424973
 20
1117.563112
 30
0.0
 11
1106.424973
 21
1117.563112
 31
0.0
  0
LINE
  5
44E
100
AcDbEntity
  8
2
  6
CONTINUOUS
 62
     7
100
AcDbLine
 10
1114.424973
 20
1119.213112
 30
0.0
 11
1114.424973
 21
1117.563112
 31
0.0
  0
LINE
  5
44F
100
AcDbEntity
  8
2
  6
CONTINUOUS
 62
     7
100
AcDbLine
 10
1114.424973
 20
1117.563112
 30
0.0
 11
1111.424973
 21
1117.563112
 31
0.0
  0
LINE
  5
450
100
AcDbEntity
  8
2
  6
CONTINUOUS
 62
     7
100
AcDbLine
 10
1098.837868
 20
1117.563112
 30
0.0
 11
1098.837868
 21
1117.063112
 31
0.0
  0
LINE
  5
451
100
AcDbEntity
  8
2
  6
CONTINUOUS
 62
     7
100
AcDbLine
 10
1111.424973
 20
1115.063112
 30
0.0
 11
1111.424973
 21
1110.376726
 31
0.0
  0
ARC
  5
452
100
AcDbEntity
  8
2
  6
CONTINUOUS
 62
     7
100
AcDbCircle
 10
1110.424973
 20
1110.376726
 30
0.0
 40
1.0
100
AcDbArc
 50
-90.0
 51
0.0
  0
LINE
  5
453
100
AcDbEntity
  8
2
  6
CONTINUOUS
 62
     7
100
AcDbLine
 10
1097.424973
 20
1115.063112
 30
0.0
 11
1097.424973
 21
1110.376726
 31
0.0
  0
LINE
  5
454
100
AcDbEntity
  8
2
  6
CONTINUOUS
 62
     7
100
AcDbLine
 10
1098.424973
 20
1109.376726
 30
0.0
 11
1110.424973
 21
1109.376726
 31
0.0
  0
ARC
  5
455
100
AcDbEntity
  8
2
  6
CONTINUOUS
 62
     7
100
AcDbCircle
 10
1098.424973
 20
1110.376726
 30
0.0
 40
1.0
100
AcDbArc
 50
180.0
 51
-90.0
  0
ARC
  5
456
100
AcDbEntity
  8
2
  6
CONTINUOUS
 62
     7
100
AcDbCircle
 10
1102.569497
 20
1107.789519
 30
0.0
 40
9.939362
100
AcDbArc
 50
7.449198
 51
27.007116
  0
ARC
  5
457
100
AcDbEntity
  8
2
  6
CONTINUOUS
 62
     7
100
AcDbCircle
 10
1106.280449
 20
1107.789519
 30
0.0
 40
9.939362
100
AcDbArc
 50
152.992884
 51
172.550802
  0
LINE
  5
458
100
AcDbEntity
  8
2
  6
CONTINUOUS
 62
     7
100
AcDbLine
 10
1112.424973
 20
1109.078128
 30
0.0
 11
1112.424973
 21
1097.367398
 31
0.0
  0
ARC
  5
459
100
AcDbEntity
  8
2
  6
CONTINUOUS
 62
     7
100
AcDbCircle
 10
1110.299973
 20
1095.469362
 30
0.0
 40
2.65625
100
AcDbArc
 50
-64.942384
 51
31.273298
  0
ARC
  5
45A
100
AcDbEntity
  8
2
  6
CONTINUOUS
 62
     7
100
AcDbCircle
 10
1113.424973
 20
1097.367398
 30
0.0
 40
1.0
100
AcDbArc
 50
180.0
 51
-148.726702
  0
LINE
  5
45B
100
AcDbEntity
  8
2
  6
CONTINUOUS
 62
     7
100
AcDbLine
 10
1104.424973
 20
1093.063112
 30
0.0
 11
1111.424973
 21
1093.063112
 31
0.0
  0
LINE
  5
45C
100
AcDbEntity
  8
2
  6
CONTINUOUS
 62
     7
100
AcDbLine
 10
1096.424973
 20
1109.078128
 30
0.0
 11
1096.424973
 21
1097.367398
 31
0.0
  0
ARC
  5
45D
100
AcDbEntity
  8
2
  6
CONTINUOUS
 62
     7
100
AcDbCircle
 10
1098.549973
 20
1095.469362
 30
0.0
 40
2.65625
100
AcDbArc
 50
148.726702
 51
-115.057616
  0
ARC
  5
45E
100
AcDbEntity
  8
2
  6
CONTINUOUS
 62
     7
100
AcDbCircle
 10
1095.424973
 20
1097.367398
 30
0.0
 40
1.0
100
AcDbArc
 50
-31.273298
 51
0.0
  0
LINE
  5
45F
100
AcDbEntity
  8
2
  6
CONTINUOUS
 62
     7
100
AcDbLine
 10
1104.424973
 20
1093.063112
 30
0.0
 11
1097.424973
 21
1093.063112
 31
0.0
  0
LINE
  5
460
100
AcDbEntity
  8
2
  6
CONTINUOUS
 62
     7
100
AcDbLine
 10
1100.424973
 20
1115.063112
 30
0.0
 11
1100.424973
 21
1111.063112
 31
0.0
  0
LINE
  5
461
100
AcDbEntity
  8
2
  6
CONTINUOUS
 62
     7
100
AcDbLine
 10
1100.424973
 20
1111.063112
 30
0.0
 11
1108.424973
 21
1111.063112
 31
0.0
  0
LINE
  5
462
100
AcDbEntity
  8
2
  6
CONTINUOUS
 62
     7
100
AcDbLine
 10
1108.424973
 20
1111.063112
 30
0.0
 11
1108.424973
 21
1115.063112
 31
0.0
  0
LINE
  5
463
100
AcDbEntity
  8
2
  6
CONTINUOUS
 62
     7
100
AcDbLine
 10
1108.424973
 20
1115.063112
 30
0.0
 11
1100.424973
 21
1115.063112
 31
0.0
  0
LINE
  5
464
100
AcDbEntity
  8
2
  6
CONTINUOUS
 62
     7
100
AcDbLine
 10
1301.424973
 20
1082.563112
 30
0.0
 11
1292.424973
 21
1082.563112
 31
0.0
  0
LINE
  5
465
100
AcDbEntity
  8
2
  6
CONTINUOUS
 62
     7
100
AcDbLine
 10
1290.424973
 20
1084.563112
 30
0.0
 11
1290.424973
 21
1130.063112
 31
0.0
  0
LINE
  5
466
100
AcDbEntity
  8
2
  6
CONTINUOUS
 62
     7
100
AcDbLine
 10
1286.424973
 20
1112.213512
 30
0.0
 11
1284.424973
 21
1112.213512
 31
0.0
  0
LINE
  5
467
100
AcDbEntity
  8
2
  6
CONTINUOUS
 62
     7
100
AcDbLine
 10
1284.424973
 20
1112.213512
 30
0.0
 11
1284.424973
 21
1130.063112
 31
0.0
  0
LINE
  5
468
100
AcDbEntity
  8
2
  6
CONTINUOUS
 62
     7
100
AcDbLine
 10
1284.424973
 20
1114.212712
 30
0.0
 11
1279.424973
 21
1119.212712
 31
0.0
  0
LINE
  5
469
100
AcDbEntity
  8
2
  6
CONTINUOUS
 62
     7
100
AcDbLine
 10
1279.424973
 20
1130.063112
 30
0.0
 11
1279.424973
 21
1119.212712
 31
0.0
  0
LINE
  5
46A
100
AcDbEntity
  8
2
  6
CONTINUOUS
 62
     7
100
AcDbLine
 10
1303.424973
 20
1130.063112
 30
0.0
 11
1303.424973
 21
1084.563112
 31
0.0
  0
ARC
  5
46B
100
AcDbEntity
  8
2
  6
CONTINUOUS
 62
     7
100
AcDbCircle
 10
1301.424973
 20
1084.563112
 30
0.0
 40
2.0
100
AcDbArc
 50
-90.0
 51
0.0
  0
ARC
  5
46C
100
AcDbEntity
  8
2
  6
CONTINUOUS
 62
     7
100
AcDbCircle
 10
1292.424973
 20
1084.563112
 30
0.0
 40
2.0
100
AcDbArc
 50
180.0
 51
-90.0
  0
ARC
  5
46D
100
AcDbEntity
  8
2
  6
CONTINUOUS
 62
     7
100
AcDbCircle
 10
1286.424973
 20
1108.213512
 30
0.0
 40
4.0
100
AcDbArc
 50
0.0
 51
90.0
  0
LINE
  5
46E
100
AcDbEntity
  8
2
  6
CONTINUOUS
 62
     7
100
AcDbLine
 10
1286.424973
 20
1147.912712
 30
0.0
 11
1284.424973
 21
1147.912712
 31
0.0
  0
LINE
  5
46F
100
AcDbEntity
  8
2
  6
CONTINUOUS
 62
     7
100
AcDbLine
 10
1284.424973
 20
1147.912712
 30
0.0
 11
1284.424973
 21
1130.063112
 31
0.0
  0
LINE
  5
470
100
AcDbEntity
  8
2
  6
CONTINUOUS
 62
     7
100
AcDbLine
 10
1284.424973
 20
1145.912712
 30
0.0
 11
1279.424973
 21
1140.912712
 31
0.0
  0
ARC
  5
471
100
AcDbEntity
  8
2
  6
CONTINUOUS
 62
     7
100
AcDbCircle
 10
1286.424973
 20
1151.912712
 30
0.0
 40
4.0
100
AcDbArc
 50
-90.0
 51
0.0
  0
LINE
  5
472
100
AcDbEntity
  8
2
  6
CONTINUOUS
 62
     7
100
AcDbLine
 10
1301.424973
 20
1177.563112
 30
0.0
 11
1292.424973
 21
1177.563112
 31
0.0
  0
LINE
  5
473
100
AcDbEntity
  8
2
  6
CONTINUOUS
 62
     7
100
AcDbLine
 10
1290.424973
 20
1175.563112
 30
0.0
 11
1290.424973
 21
1130.063112
 31
0.0
  0
LINE
  5
474
100
AcDbEntity
  8
2
  6
CONTINUOUS
 62
     7
100
AcDbLine
 10
1303.424973
 20
1130.063112
 30
0.0
 11
1303.424973
 21
1175.563112
 31
0.0
  0
ARC
  5
475
100
AcDbEntity
  8
2
  6
CONTINUOUS
 62
     7
100
AcDbCircle
 10
1301.424973
 20
1175.563112
 30
0.0
 40
2.0
100
AcDbArc
 50
0.0
 51
90.0
  0
ARC
  5
476
100
AcDbEntity
  8
2
  6
CONTINUOUS
 62
     7
100
AcDbCircle
 10
1292.424973
 20
1175.563112
 30
0.0
 40
2.0
100
AcDbArc
 50
90.0
 51
180.0
  0
LINE
  5
477
100
AcDbEntity
  8
2
  6
CONTINUOUS
 62
     7
100
AcDbLine
 10
1279.424973
 20
1140.912712
 30
0.0
 11
1279.424973
 21
1130.063112
 31
0.0
  0
LINE
  5
478
100
AcDbEntity
  8
2
  6
CONTINUOUS
 62
     7
100
AcDbLine
 10
1304.424973
 20
1104.563112
 30
0.0
 11
1303.424973
 21
1104.563112
 31
0.0
  0
LINE
  5
479
100
AcDbEntity
  8
2
  6
CONTINUOUS
 62
     7
100
AcDbLine
 10
1304.424973
 20
1155.563112
 30
0.0
 11
1303.424973
 21
1155.563112
 31
0.0
  0
LINE
  5
47A
100
AcDbEntity
  8
2
  6
CONTINUOUS
 62
     7
100
AcDbLine
 10
1304.424973
 20
1104.563112
 30
0.0
 11
1304.424973
 21
1130.063112
 31
0.0
  0
LINE
  5
47B
100
AcDbEntity
  8
2
  6
CONTINUOUS
 62
     7
100
AcDbLine
 10
1304.424973
 20
1155.563112
 30
0.0
 11
1304.424973
 21
1130.063112
 31
0.0
  0
LINE
  5
47C
100
AcDbEntity
  8
2
  6
CONTINUOUS
 62
     7
100
AcDbLine
 10
706.445795
 20
1114.063112
 30
0.0
 11
706.445795
 21
1111.063112
 31
0.0
  0
LINE
  5
47D
100
AcDbEntity
  8
2
  6
CONTINUOUS
 62
     7
100
AcDbLine
 10
702.404473
 20
1114.063112
 30
0.0
 11
702.404473
 21
1111.063112
 31
0.0
  0
LINE
  5
47E
100
AcDbEntity
  8
2
  6
CONTINUOUS
 62
     7
100
AcDbLine
 10
700.424973
 20
1114.063112
 30
0.0
 11
708.424973
 21
1114.063112
 31
0.0
  0
LINE
  5
47F
100
AcDbEntity
  8
2
  6
CONTINUOUS
 62
     7
100
AcDbLine
 10
704.876316
 20
1115.063112
 30
0.0
 11
703.932808
 21
1114.063112
 31
0.0
  0
LINE
  5
480
100
AcDbEntity
  8
2
  6
CONTINUOUS
 62
     7
100
AcDbLine
 10
697.424973
 20
1117.063112
 30
0.0
 11
697.424973
 21
1115.063112
 31
0.0
  0
LINE
  5
481
100
AcDbEntity
  8
2
  6
CONTINUOUS
 62
     7
100
AcDbLine
 10
697.424973
 20
1115.063112
 30
0.0
 11
711.424973
 21
1115.063112
 31
0.0
  0
LINE
  5
482
100
AcDbEntity
  8
2
  6
CONTINUOUS
 62
     7
100
AcDbLine
 10
711.424973
 20
1115.063112
 30
0.0
 11
711.424973
 21
1117.063112
 31
0.0
  0
LINE
  5
483
100
AcDbEntity
  8
2
  6
CONTINUOUS
 62
     7
100
AcDbLine
 10
697.424973
 20
1117.063112
 30
0.0
 11
706.424973
 21
1117.063112
 31
0.0
  0
LINE
  5
484
100
AcDbEntity
  8
2
  6
CONTINUOUS
 62
     7
100
AcDbLine
 10
706.424973
 20
1117.063112
 30
0.0
 11
706.424973
 21
1118.536363
 31
0.0
  0
LINE
  5
485
100
AcDbEntity
  8
2
  6
CONTINUOUS
 62
     7
100
AcDbLine
 10
706.424973
 20
1118.536363
 30
0.0
 11
711.424973
 21
1118.536363
 31
0.0
  0
LINE
  5
486
100
AcDbEntity
  8
2
  6
CONTINUOUS
 62
     7
100
AcDbLine
 10
711.424973
 20
1118.536363
 30
0.0
 11
711.424973
 21
1117.063112
 31
0.0
  0
LINE
  5
487
100
AcDbEntity
  8
2
  6
CONTINUOUS
 62
     7
100
AcDbLine
 10
706.424973
 20
1117.063112
 30
0.0
 11
706.424973
 21
1115.063112
 31
0.0
  0
LINE
  5
488
100
AcDbEntity
  8
2
  6
CONTINUOUS
 62
     7
100
AcDbLine
 10
694.424973
 20
1119.213112
 30
0.0
 11
694.424973
 21
1117.563112
 31
0.0
  0
LINE
  5
489
100
AcDbEntity
  8
2
  6
CONTINUOUS
 62
     7
100
AcDbLine
 10
694.424973
 20
1117.563112
 30
0.0
 11
706.424973
 21
1117.563112
 31
0.0
  0
LINE
  5
48A
100
AcDbEntity
  8
2
  6
CONTINUOUS
 62
     7
100
AcDbLine
 10
714.424973
 20
1119.213112
 30
0.0
 11
714.424973
 21
1117.563112
 31
0.0
  0
LINE
  5
48B
100
AcDbEntity
  8
2
  6
CONTINUOUS
 62
     7
100
AcDbLine
 10
714.424973
 20
1117.563112
 30
0.0
 11
711.424973
 21
1117.563112
 31
0.0
  0
LINE
  5
48C
100
AcDbEntity
  8
2
  6
CONTINUOUS
 62
     7
100
AcDbLine
 10
698.837868
 20
1117.563112
 30
0.0
 11
698.837868
 21
1117.063112
 31
0.0
  0
LINE
  5
48D
100
AcDbEntity
  8
2
  6
CONTINUOUS
 62
     7
100
AcDbLine
 10
711.424973
 20
1115.063112
 30
0.0
 11
711.424973
 21
1110.376726
 31
0.0
  0
ARC
  5
48E
100
AcDbEntity
  8
2
  6
CONTINUOUS
 62
     7
100
AcDbCircle
 10
710.424973
 20
1110.376726
 30
0.0
 40
1.0
100
AcDbArc
 50
-90.0
 51
0.0
  0
LINE
  5
48F
100
AcDbEntity
  8
2
  6
CONTINUOUS
 62
     7
100
AcDbLine
 10
697.424973
 20
1115.063112
 30
0.0
 11
697.424973
 21
1110.376726
 31
0.0
  0
LINE
  5
490
100
AcDbEntity
  8
2
  6
CONTINUOUS
 62
     7
100
AcDbLine
 10
698.424973
 20
1109.376726
 30
0.0
 11
710.424973
 21
1109.376726
 31
0.0
  0
ARC
  5
491
100
AcDbEntity
  8
2
  6
CONTINUOUS
 62
     7
100
AcDbCircle
 10
698.424973
 20
1110.376726
 30
0.0
 40
1.0
100
AcDbArc
 50
180.0
 51
-90.0
  0
ARC
  5
492
100
AcDbEntity
  8
2
  6
CONTINUOUS
 62
     7
100
AcDbCircle
 10
702.569497
 20
1107.789519
 30
0.0
 40
9.939362
100
AcDbArc
 50
7.449198
 51
27.007116
  0
ARC
  5
493
100
AcDbEntity
  8
2
  6
CONTINUOUS
 62
     7
100
AcDbCircle
 10
706.280449
 20
1107.789519
 30
0.0
 40
9.939362
100
AcDbArc
 50
152.992884
 51
172.550802
  0
LINE
  5
494
100
AcDbEntity
  8
2
  6
CONTINUOUS
 62
     7
100
AcDbLine
 10
712.424973
 20
1109.078128
 30
0.0
 11
712.424973
 21
1097.367398
 31
0.0
  0
ARC
  5
495
100
AcDbEntity
  8
2
  6
CONTINUOUS
 62
     7
100
AcDbCircle
 10
710.299973
 20
1095.469362
 30
0.0
 40
2.65625
100
AcDbArc
 50
-64.942384
 51
31.273298
  0
ARC
  5
496
100
AcDbEntity
  8
2
  6
CONTINUOUS
 62
     7
100
AcDbCircle
 10
713.424973
 20
1097.367398
 30
0.0
 40
1.0
100
AcDbArc
 50
180.0
 51
-148.726702
  0
LINE
  5
497
100
AcDbEntity
  8
2
  6
CONTINUOUS
 62
     7
100
AcDbLine
 10
704.424973
 20
1093.063112
 30
0.0
 11
711.424973
 21
1093.063112
 31
0.0
  0
LINE
  5
498
100
AcDbEntity
  8
2
  6
CONTINUOUS
 62
     7
100
AcDbLine
 10
696.424973
 20
1109.078128
 30
0.0
 11
696.424973
 21
1097.367398
 31
0.0
  0
ARC
  5
499
100
AcDbEntity
  8
2
  6
CONTINUOUS
 62
     7
100
AcDbCircle
 10
698.549973
 20
1095.469362
 30
0.0
 40
2.65625
100
AcDbArc
 50
148.726702
 51
-115.057616
  0
ARC
  5
49A
100
AcDbEntity
  8
2
  6
CONTINUOUS
 62
     7
100
AcDbCircle
 10
695.424973
 20
1097.367398
 30
0.0
 40
1.0
100
AcDbArc
 50
-31.273298
 51
0.0
  0
LINE
  5
49B
100
AcDbEntity
  8
2
  6
CONTINUOUS
 62
     7
100
AcDbLine
 10
704.424973
 20
1093.063112
 30
0.0
 11
697.424973
 21
1093.063112
 31
0.0
  0
LINE
  5
49C
100
AcDbEntity
  8
2
  6
CONTINUOUS
 62
     7
100
AcDbLine
 10
700.424973
 20
1115.063112
 30
0.0
 11
700.424973
 21
1111.063112
 31
0.0
  0
LINE
  5
49D
100
AcDbEntity
  8
2
  6
CONTINUOUS
 62
     7
100
AcDbLine
 10
700.424973
 20
1111.063112
 30
0.0
 11
708.424973
 21
1111.063112
 31
0.0
  0
LINE
  5
49E
100
AcDbEntity
  8
2
  6
CONTINUOUS
 62
     7
100
AcDbLine
 10
708.424973
 20
1111.063112
 30
0.0
 11
708.424973
 21
1115.063112
 31
0.0
  0
LINE
  5
49F
100
AcDbEntity
  8
2
  6
CONTINUOUS
 62
     7
100
AcDbLine
 10
708.424973
 20
1115.063112
 30
0.0
 11
700.424973
 21
1115.063112
 31
0.0
  0
CIRCLE
  5
4A0
100
AcDbEntity
  8
2
  6
CONTINUOUS
 62
     7
100
AcDbCircle
 10
904.424973
 20
1130.063112
 30
0.0
 40
9.0
  0
CIRCLE
  5
4A1
100
AcDbEntity
  8
2
  6
CONTINUOUS
 62
     7
100
AcDbCircle
 10
904.424973
 20
1130.063112
 30
0.0
 40
6.68
  0
LINE
  5
4A2
100
AcDbEntity
  8
2
  6
CONTINUOUS
 62
     7
100
AcDbLine
 10
908.924973
 20
1134.563112
 30
0.0
 11
908.924973
 21
1125.563112
 31
0.0
  0
LINE
  5
4A3
100
AcDbEntity
  8
2
  6
CONTINUOUS
 62
     7
100
AcDbLine
 10
908.924973
 20
1125.563112
 30
0.0
 11
899.924973
 21
1125.563112
 31
0.0
  0
LINE
  5
4A4
100
AcDbEntity
  8
2
  6
CONTINUOUS
 62
     7
100
AcDbLine
 10
899.924973
 20
1125.563112
 30
0.0
 11
899.924973
 21
1134.563112
 31
0.0
  0
LINE
  5
4A5
100
AcDbEntity
  8
2
  6
CONTINUOUS
 62
     7
100
AcDbLine
 10
899.924973
 20
1134.563112
 30
0.0
 11
908.924973
 21
1134.563112
 31
0.0
  0
LINE
  5
4A6
100
AcDbEntity
  8
2
  6
CONTINUOUS
 62
     7
100
AcDbLine
 10
129.424173
 20
1140.913512
 30
0.0
 11
129.424173
 21
1119.212712
 31
0.0
  0
LINE
  5
4A7
100
AcDbEntity
  8
2
  6
CONTINUOUS
 62
     7
100
AcDbLine
 10
104.424973
 20
1155.563112
 30
0.0
 11
104.424973
 21
1104.563112
 31
0.0
  0
LINE
  5
4A8
100
AcDbEntity
  8
2
  6
CONTINUOUS
 62
     7
100
AcDbLine
 10
104.424973
 20
1104.563112
 30
0.0
 11
105.424973
 21
1104.563112
 31
0.0
  0
LINE
  5
4A9
100
AcDbEntity
  8
2
  6
CONTINUOUS
 62
     7
100
AcDbLine
 10
107.424973
 20
1082.563112
 30
0.0
 11
116.424973
 21
1082.563112
 31
0.0
  0
LINE
  5
4AA
100
AcDbEntity
  8
2
  6
CONTINUOUS
 62
     7
100
AcDbLine
 10
118.424973
 20
1084.563112
 30
0.0
 11
118.424973
 21
1130.063112
 31
0.0
  0
LINE
  5
4AB
100
AcDbEntity
  8
2
  6
CONTINUOUS
 62
     7
100
AcDbLine
 10
122.424973
 20
1112.213512
 30
0.0
 11
124.424973
 21
1112.213512
 31
0.0
  0
LINE
  5
4AC
100
AcDbEntity
  8
2
  6
CONTINUOUS
 62
     7
100
AcDbLine
 10
124.424973
 20
1112.213512
 30
0.0
 11
124.424973
 21
1130.063112
 31
0.0
  0
LINE
  5
4AD
100
AcDbEntity
  8
2
  6
CONTINUOUS
 62
     7
100
AcDbLine
 10
124.424973
 20
1114.212712
 30
0.0
 11
129.424973
 21
1119.212712
 31
0.0
  0
LINE
  5
4AE
100
AcDbEntity
  8
2
  6
CONTINUOUS
 62
     7
100
AcDbLine
 10
105.424973
 20
1130.063112
 30
0.0
 11
105.424973
 21
1084.563112
 31
0.0
  0
ARC
  5
4AF
100
AcDbEntity
  8
2
  6
CONTINUOUS
 62
     7
100
AcDbCircle
 10
107.424973
 20
1084.563112
 30
0.0
 40
2.0
100
AcDbArc
 50
180.0
 51
-90.0
  0
ARC
  5
4B0
100
AcDbEntity
  8
2
  6
CONTINUOUS
 62
     7
100
AcDbCircle
 10
116.424973
 20
1084.563112
 30
0.0
 40
2.0
100
AcDbArc
 50
-90.0
 51
0.0
  0
ARC
  5
4B1
100
AcDbEntity
  8
2
  6
CONTINUOUS
 62
     7
100
AcDbCircle
 10
122.424973
 20
1108.213512
 30
0.0
 40
4.0
100
AcDbArc
 50
90.0
 51
180.0
  0
LINE
  5
4B2
100
AcDbEntity
  8
2
  6
CONTINUOUS
 62
     7
100
AcDbLine
 10
104.424973
 20
1155.563112
 30
0.0
 11
105.424973
 21
1155.563112
 31
0.0
  0
ARC
  5
4B3
100
AcDbEntity
  8
2
  6
CONTINUOUS
 62
     7
100
AcDbCircle
 10
107.424973
 20
1175.563112
 30
0.0
 40
2.0
100
AcDbArc
 50
90.0
 51
180.0
  0
LINE
  5
4B4
100
AcDbEntity
  8
2
  6
CONTINUOUS
 62
     7
100
AcDbLine
 10
107.424973
 20
1177.563112
 30
0.0
 11
116.424973
 21
1177.563112
 31
0.0
  0
LINE
  5
4B5
100
AcDbEntity
  8
2
  6
CONTINUOUS
 62
     7
100
AcDbLine
 10
118.424973
 20
1175.563112
 30
0.0
 11
118.424973
 21
1130.063112
 31
0.0
  0
LINE
  5
4B6
100
AcDbEntity
  8
2
  6
CONTINUOUS
 62
     7
100
AcDbLine
 10
122.424973
 20
1147.912712
 30
0.0
 11
124.424973
 21
1147.912712
 31
0.0
  0
LINE
  5
4B7
100
AcDbEntity
  8
2
  6
CONTINUOUS
 62
     7
100
AcDbLine
 10
124.424973
 20
1147.912712
 30
0.0
 11
124.424973
 21
1130.063112
 31
0.0
  0
LINE
  5
4B8
100
AcDbEntity
  8
2
  6
CONTINUOUS
 62
     7
100
AcDbLine
 10
124.424973
 20
1145.912712
 30
0.0
 11
129.424973
 21
1140.912712
 31
0.0
  0
ARC
  5
4B9
100
AcDbEntity
  8
2
  6
CONTINUOUS
 62
     7
100
AcDbCircle
 10
107.424973
 20
1175.563112
 30
0.0
 40
2.0
100
AcDbArc
 50
90.0
 51
180.0
  0
ARC
  5
4BA
100
AcDbEntity
  8
2
  6
CONTINUOUS
 62
     7
100
AcDbCircle
 10
116.424973
 20
1175.563112
 30
0.0
 40
2.0
100
AcDbArc
 50
0.0
 51
90.0
  0
ARC
  5
4BB
100
AcDbEntity
  8
2
  6
CONTINUOUS
 62
     7
100
AcDbCircle
 10
122.424973
 20
1151.912712
 30
0.0
 40
4.0
100
AcDbArc
 50
180.0
 51
-90.0
  0
LINE
  5
4BC
100
AcDbEntity
  8
2
  6
CONTINUOUS
 62
     7
100
AcDbLine
 10
105.424973
 20
1175.563112
 30
0.0
 11
105.424973
 21
1130.063112
 31
0.0
  0
LINE
  5
4BD
100
AcDbEntity
  8
2
  6
CONTINUOUS
 62
     7
100
AcDbLine
 10
306.445795
 20
1114.063112
 30
0.0
 11
306.445795
 21
1111.063112
 31
0.0
  0
LINE
  5
4BE
100
AcDbEntity
  8
2
  6
CONTINUOUS
 62
     7
100
AcDbLine
 10
302.404473
 20
1114.063112
 30
0.0
 11
302.404473
 21
1111.063112
 31
0.0
  0
LINE
  5
4BF
100
AcDbEntity
  8
2
  6
CONTINUOUS
 62
     7
100
AcDbLine
 10
300.424973
 20
1114.063112
 30
0.0
 11
308.424973
 21
1114.063112
 31
0.0
  0
LINE
  5
4C0
100
AcDbEntity
  8
2
  6
CONTINUOUS
 62
     7
100
AcDbLine
 10
304.876316
 20
1115.063112
 30
0.0
 11
303.932808
 21
1114.063112
 31
0.0
  0
LINE
  5
4C1
100
AcDbEntity
  8
2
  6
CONTINUOUS
 62
     7
100
AcDbLine
 10
297.424973
 20
1117.063112
 30
0.0
 11
297.424973
 21
1115.063112
 31
0.0
  0
LINE
  5
4C2
100
AcDbEntity
  8
2
  6
CONTINUOUS
 62
     7
100
AcDbLine
 10
297.424973
 20
1115.063112
 30
0.0
 11
311.424973
 21
1115.063112
 31
0.0
  0
LINE
  5
4C3
100
AcDbEntity
  8
2
  6
CONTINUOUS
 62
     7
100
AcDbLine
 10
311.424973
 20
1115.063112
 30
0.0
 11
311.424973
 21
1117.063112
 31
0.0
  0
LINE
  5
4C4
100
AcDbEntity
  8
2
  6
CONTINUOUS
 62
     7
100
AcDbLine
 10
297.424973
 20
1117.063112
 30
0.0
 11
306.424973
 21
1117.063112
 31
0.0
  0
LINE
  5
4C5
100
AcDbEntity
  8
2
  6
CONTINUOUS
 62
     7
100
AcDbLine
 10
306.424973
 20
1117.063112
 30
0.0
 11
306.424973
 21
1118.536363
 31
0.0
  0
LINE
  5
4C6
100
AcDbEntity
  8
2
  6
CONTINUOUS
 62
     7
100
AcDbLine
 10
306.424973
 20
1118.536363
 30
0.0
 11
311.424973
 21
1118.536363
 31
0.0
  0
LINE
  5
4C7
100
AcDbEntity
  8
2
  6
CONTINUOUS
 62
     7
100
AcDbLine
 10
311.424973
 20
1118.536363
 30
0.0
 11
311.424973
 21
1117.063112
 31
0.0
  0
LINE
  5
4C8
100
AcDbEntity
  8
2
  6
CONTINUOUS
 62
     7
100
AcDbLine
 10
306.424973
 20
1117.063112
 30
0.0
 11
306.424973
 21
1115.063112
 31
0.0
  0
LINE
  5
4C9
100
AcDbEntity
  8
2
  6
CONTINUOUS
 62
     7
100
AcDbLine
 10
294.424973
 20
1119.213112
 30
0.0
 11
294.424973
 21
1117.563112
 31
0.0
  0
LINE
  5
4CA
100
AcDbEntity
  8
2
  6
CONTINUOUS
 62
     7
100
AcDbLine
 10
294.424973
 20
1117.563112
 30
0.0
 11
306.424973
 21
1117.563112
 31
0.0
  0
LINE
  5
4CB
100
AcDbEntity
  8
2
  6
CONTINUOUS
 62
     7
100
AcDbLine
 10
314.424973
 20
1119.213112
 30
0.0
 11
314.424973
 21
1117.563112
 31
0.0
  0
LINE
  5
4CC
100
AcDbEntity
  8
2
  6
CONTINUOUS
 62
     7
100
AcDbLine
 10
314.424973
 20
1117.563112
 30
0.0
 11
311.424973
 21
1117.563112
 31
0.0
  0
LINE
  5
4CD
100
AcDbEntity
  8
2
  6
CONTINUOUS
 62
     7
100
AcDbLine
 10
298.837868
 20
1117.563112
 30
0.0
 11
298.837868
 21
1117.063112
 31
0.0
  0
LINE
  5
4CE
100
AcDbEntity
  8
2
  6
CONTINUOUS
 62
     7
100
AcDbLine
 10
311.424973
 20
1115.063112
 30
0.0
 11
311.424973
 21
1110.376726
 31
0.0
  0
ARC
  5
4CF
100
AcDbEntity
  8
2
  6
CONTINUOUS
 62
     7
100
AcDbCircle
 10
310.424973
 20
1110.376726
 30
0.0
 40
1.0
100
AcDbArc
 50
-90.0
 51
0.0
  0
LINE
  5
4D0
100
AcDbEntity
  8
2
  6
CONTINUOUS
 62
     7
100
AcDbLine
 10
297.424973
 20
1115.063112
 30
0.0
 11
297.424973
 21
1110.376726
 31
0.0
  0
LINE
  5
4D1
100
AcDbEntity
  8
2
  6
CONTINUOUS
 62
     7
100
AcDbLine
 10
298.424973
 20
1109.376726
 30
0.0
 11
310.424973
 21
1109.376726
 31
0.0
  0
ARC
  5
4D2
100
AcDbEntity
  8
2
  6
CONTINUOUS
 62
     7
100
AcDbCircle
 10
298.424973
 20
1110.376726
 30
0.0
 40
1.0
100
AcDbArc
 50
180.0
 51
-90.0
  0
ARC
  5
4D3
100
AcDbEntity
  8
2
  6
CONTINUOUS
 62
     7
100
AcDbCircle
 10
302.569497
 20
1107.789519
 30
0.0
 40
9.939362
100
AcDbArc
 50
7.449198
 51
27.007116
  0
ARC
  5
4D4
100
AcDbEntity
  8
2
  6
CONTINUOUS
 62
     7
100
AcDbCircle
 10
306.280449
 20
1107.789519
 30
0.0
 40
9.939362
100
AcDbArc
 50
152.992884
 51
172.550802
  0
LINE
  5
4D5
100
AcDbEntity
  8
2
  6
CONTINUOUS
 62
     7
100
AcDbLine
 10
312.424973
 20
1109.078128
 30
0.0
 11
312.424973
 21
1097.367398
 31
0.0
  0
ARC
  5
4D6
100
AcDbEntity
  8
2
  6
CONTINUOUS
 62
     7
100
AcDbCircle
 10
310.299973
 20
1095.469362
 30
0.0
 40
2.65625
100
AcDbArc
 50
-64.942384
 51
31.273298
  0
ARC
  5
4D7
100
AcDbEntity
  8
2
  6
CONTINUOUS
 62
     7
100
AcDbCircle
 10
313.424973
 20
1097.367398
 30
0.0
 40
1.0
100
AcDbArc
 50
180.0
 51
-148.726702
  0
LINE
  5
4D8
100
AcDbEntity
  8
2
  6
CONTINUOUS
 62
     7
100
AcDbLine
 10
304.424973
 20
1093.063112
 30
0.0
 11
311.424973
 21
1093.063112
 31
0.0
  0
LINE
  5
4D9
100
AcDbEntity
  8
2
  6
CONTINUOUS
 62
     7
100
AcDbLine
 10
296.424973
 20
1109.078128
 30
0.0
 11
296.424973
 21
1097.367398
 31
0.0
  0
ARC
  5
4DA
100
AcDbEntity
  8
2
  6
CONTINUOUS
 62
     7
100
AcDbCircle
 10
298.549973
 20
1095.469362
 30
0.0
 40
2.65625
100
AcDbArc
 50
148.726702
 51
-115.057616
  0
ARC
  5
4DB
100
AcDbEntity
  8
2
  6
CONTINUOUS
 62
     7
100
AcDbCircle
 10
295.424973
 20
1097.367398
 30
0.0
 40
1.0
100
AcDbArc
 50
-31.273298
 51
0.0
  0
LINE
  5
4DC
100
AcDbEntity
  8
2
  6
CONTINUOUS
 62
     7
100
AcDbLine
 10
304.424973
 20
1093.063112
 30
0.0
 11
297.424973
 21
1093.063112
 31
0.0
  0
LINE
  5
4DD
100
AcDbEntity
  8
2
  6
CONTINUOUS
 62
     7
100
AcDbLine
 10
300.424973
 20
1115.063112
 30
0.0
 11
300.424973
 21
1111.063112
 31
0.0
  0
LINE
  5
4DE
100
AcDbEntity
  8
2
  6
CONTINUOUS
 62
     7
100
AcDbLine
 10
300.424973
 20
1111.063112
 30
0.0
 11
308.424973
 21
1111.063112
 31
0.0
  0
LINE
  5
4DF
100
AcDbEntity
  8
2
  6
CONTINUOUS
 62
     7
100
AcDbLine
 10
308.424973
 20
1111.063112
 30
0.0
 11
308.424973
 21
1115.063112
 31
0.0
  0
LINE
  5
4E0
100
AcDbEntity
  8
2
  6
CONTINUOUS
 62
     7
100
AcDbLine
 10
308.424973
 20
1115.063112
 30
0.0
 11
300.424973
 21
1115.063112
 31
0.0
  0
LINE
  5
4E1
100
AcDbEntity
  8
2
  6
CONTINUOUS
 62
     7
100
AcDbLine
 10
129.424173
 20
1119.213112
 30
0.0
 11
1279.424973
 21
1119.213112
 31
0.0
  0
LINE
  5
4E2
100
AcDbEntity
  8
2
  6
CONTINUOUS
 62
     7
100
AcDbLine
 10
129.424173
 20
1140.913112
 30
0.0
 11
1279.424973
 21
1140.913112
 31
0.0
  0
LINE
  5
4E3
100
AcDbEntity
  8
1
  6
CENTER
 62
     7
100
AcDbLine
 10
1315.067016
 20
1130.063112
 30
0.0
 11
98.364587
 21
1130.063112
 31
0.0
  0
ENDSEC
  0
SECTION
  2
OBJECTS
  0
DICTIONARY
  5
19
100
AcDbDictionary
  3
ACAD_GROUP
350
1A
  3
ACAD_MLINESTYLE
350
1B
  0
DICTIONARY
  5
1A
102
{ACAD_REACTORS
330
19
102
}
100
AcDbDictionary
  0
DICTIONARY
  5
1B
102
{ACAD_REACTORS
330
19
102
}
100
AcDbDictionary
  3
STANDARD
350
1C
  0
MLINESTYLE
  5
1C
102
{ACAD_REACTORS
330
1B
102
}
100
AcDbMlineStyle
  2
STANDARD
 70
     0
  3

 62
     0
 51
90.0
 52
90.0
 71
     2
 49
0.5
 62
   256
  6
BYLAYER
 49
-0.5
 62
   256
  6
BYLAYER
  0
ENDSEC
  0
EOF
