  0
SECTION
  2
HEADER
  9
$ACADVER
  1
AC1014
  9
$ACADMAINTVER
 70
     0
  9
$DWGCODEPAGE
  3
DOS932
  9
$INSBASE
 10
0.0
 20
0.0
 30
0.0
  9
$EXTMIN
 10
0.0
 20
0.0
 30
0.0
  9
$EXTMAX
 10
2100.0
 20
1480.0
 30
0.0
  9
$LIMMIN
 10
0.0
 20
0.0
  9
$LIMMAX
 10
2100.0
 20
1480.0
  9
$ORTHOMODE
 70
     0
  9
$REGENMODE
 70
     1
  9
$FILLMODE
 70
     1
  9
$QTEXTMODE
 70
     0
  9
$MIRRTEXT
 70
     1
  9
$DRAGMODE
 70
     2
  9
$LTSCALE
 40
2.5
  9
$OSMODE
 70
     0
  9
$ATTMODE
 70
     1
  9
$TEXTSIZE
 40
34.0
  9
$TRACEWID
 40
0.05
  9
$TEXTSTYLE
  7
STANDARD
  9
$CLAYER
  8
0
  9
$CELTYPE
  6
CONTINUOUS
  9
$CECOLOR
 62
   256
  9
$CELTSCALE
 40
1.0
  9
$DELOBJ
 70
     1
  9
$DISPSILH
 70
     0
  9
$DIMSCALE
 40
10.0
  9
$DIMASZ
 40
2.0
  9
$DIMEXO
 40
2.0
  9
$DIMDLI
 40
10.0
  9
$DIMRND
 40
0.0
  9
$DIMDLE
 40
0.0
  9
$DIMEXE
 40
2.0
  9
$DIMTP
 40
0.0
  9
$DIMTM
 40
0.0
  9
$DIMTXT
 40
4.0
  9
$DIMCEN
 40
0.09
  9
$DIMTSZ
 40
0.0
  9
$DIMTOL
 70
     0
  9
$DIMLIM
 70
     0
  9
$DIMTIH
 70
     0
  9
$DIMTOH
 70
     0
  9
$DIMSE1
 70
     0
  9
$DIMSE2
 70
     0
  9
$DIMTAD
 70
     3
  9
$DIMZIN
 70
     0
  9
$DIMBLK
  1

  9
$DIMASO
 70
     1
  9
$DIMSHO
 70
     1
  9
$DIMPOST
  1

  9
$DIMAPOST
  1

  9
$DIMALT
 70
     0
  9
$DIMALTD
 70
     2
  9
$DIMALTF
 40
25.4
  9
$DIMLFAC
 40
1.0
  9
$DIMTOFL
 70
     1
  9
$DIMTVP
 40
0.7
  9
$DIMTIX
 70
     0
  9
$DIMSOXD
 70
     0
  9
$DIMSAH
 70
     0
  9
$DIMBLK1
  1

  9
$DIMBLK2
  1

  9
$DIMSTYLE
  2
STANDARD
  9
$DIMCLRD
 70
     0
  9
$DIMCLRE
 70
     0
  9
$DIMCLRT
 70
     0
  9
$DIMTFAC
 40
0.5
  9
$DIMGAP
 40
0.0
  9
$DIMJUST
 70
     0
  9
$DIMSD1
 70
     0
  9
$DIMSD2
 70
     0
  9
$DIMTOLJ
 70
     1
  9
$DIMTZIN
 70
     0
  9
$DIMALTZ
 70
     0
  9
$DIMALTTZ
 70
     0
  9
$DIMFIT
 70
     3
  9
$DIMUPT
 70
     0
  9
$DIMUNIT
 70
     2
  9
$DIMDEC
 70
     2
  9
$DIMTDEC
 70
     4
  9
$DIMALTU
 70
     2
  9
$DIMALTTD
 70
     2
  9
$DIMTXSTY
  7
STANDARD
  9
$DIMAUNIT
 70
     0
  9
$LUNITS
 70
     2
  9
$LUPREC
 70
     4
  9
$SKETCHINC
 40
0.1
  9
$FILLETRAD
 40
0.0
  9
$AUNITS
 70
     0
  9
$AUPREC
 70
     0
  9
$MENU
  1
acad
  9
$ELEVATION
 40
0.0
  9
$PELEVATION
 40
0.0
  9
$THICKNESS
 40
0.0
  9
$LIMCHECK
 70
     0
  9
$BLIPMODE
 70
     1
  9
$CHAMFERA
 40
0.0
  9
$CHAMFERB
 40
0.0
  9
$CHAMFERC
 40
0.0
  9
$CHAMFERD
 40
0.0
  9
$SKPOLY
 70
     0
  9
$TDCREATE
 40
2453951.937013889
  9
$TDUPDATE
 40
2453951.937013889
  9
$TDINDWG
 40
0.0000000000
  9
$TDUSRTIMER
 40
0.0000000000
  9
$USRTIMER
 70
     1
  9
$ANGBASE
 50
0.0
  9
$ANGDIR
 70
     0
  9
$PDMODE
 70
     0
  9
$PDSIZE
 40
0.0
  9
$PLINEWID
 40
0.0
  9
$COORDS
 70
     0
  9
$SPLFRAME
 70
     0
  9
$SPLINETYPE
 70
     6
  9
$SPLINESEGS
 70
     8
  9
$ATTDIA
 70
     0
  9
$ATTREQ
 70
     1
  9
$HANDLING
 70
     1
  9
$HANDSEED
  5
403
  9
$SURFTAB1
 70
     6
  9
$SURFTAB2
 70
     6
  9
$SURFTYPE
 70
     6
  9
$SURFU
 70
     6
  9
$SURFV
 70
     6
  9
$UCSNAME
  2

  9
$UCSORG
 10
0.0
 20
0.0
 30
0.0
  9
$UCSXDIR
 10
1.0
 20
0.0
 30
0.0
  9
$UCSYDIR
 10
0.0
 20
1.0
 30
0.0
  9
$PUCSNAME
  2

  9
$PUCSORG
 10
0.0
 20
0.0
 30
0.0
  9
$PUCSXDIR
 10
1.0
 20
0.0
 30
0.0
  9
$PUCSYDIR
 10
0.0
 20
1.0
 30
0.0
  9
$USERI1
 70
     0
  9
$USERI2
 70
     0
  9
$USERI3
 70
     0
  9
$USERI4
 70
     0
  9
$USERI5
 70
     0
  9
$USERR1
 40
0.0
  9
$USERR2
 40
0.0
  9
$USERR3
 40
0.0
  9
$USERR4
 40
0.0
  9
$USERR5
 40
0.0
  9
$WORLDVIEW
 70
     1
  9
$SHADEDGE
 70
     3
  9
$SHADEDIF
 70
    70
  9
$TILEMODE
 70
     1
  9
$MAXACTVP
 70
    16
  9
$PINSBASE
 10
0.0
 20
0.0
 30
0.0
  9
$PLIMCHECK
 70
     0
  9
$PEXTMIN
 10
0.0
 20
0.0
 30
0.0
  9
$PEXTMAX
 10
210.0
 20
148.0
 30
0.0
  9
$PLIMMIN
 10
0.0
 20
0.0
  9
$PLIMMAX
 10
210.0
 20
148.0
  9
$UNITMODE
 70
     0
  9
$VISRETAIN
 70
     0
  9
$PLINEGEN
 70
     1
  9
$PSLTSCALE
 70
     0
  9
$TREEDEPTH
 70
  3020
  9
$PICKSTYLE
 70
     1
  9
$CMLSTYLE
  2
STANDARD
  9
$CMLJUST
 70
     0
  9
$CMLSCALE
 40
1.0
  9
$PROXYGRAPHICS
 70
     0
  9
$MEASUREMENT
 70
     0
  0
ENDSEC
  0
SECTION
  2
CLASSES
  0
CLASS
  1
LWPOLYLINE
  2
AcDbPolyline
  3
"AutoCAD"
 90
        0
280
     0
281
     1
  0
CLASS
  1
IMAGE
  2
AcDbRasterImage
  3
ISM
 90
      127
280
     0
281
     1
  0
CLASS
  1
OLE2FRAME
  2
AcDbOle2Frame
  3
""
 90
        0
280
     0
281
     1
  0
CLASS
  1
HATCH
  2
AcDbHatch
  3
"ACAD_SEDONA"
 90
        0
280
     0
281
     1
  0
CLASS
  1
DICTIONARYVAR
  2
AcDbDictionaryVar
  3
"AutoCAD"
 90
        0
280
     0
281
     0
  0
CLASS
  1
RASTERVARIABLES
  2
AcDbRasterVariables
  3
ISM
 90
        0
280
     0
281
     0
  0
CLASS
  1
IMAGEDEF
  2
AcDbRasterImageDef
  3
ISM
 90
        0
280
     0
281
     0
  0
CLASS
  1
IMAGEDEF_REACTOR
  2
AcDbRasterImageDefReactor
  3
ISM
 90
        1
280
     0
281
     0
  0
CLASS
  1
IDBUFFER
  2
AcDbIdBuffer
  3
"Acad"
 90
        0
280
     0
281
     0
  0
CLASS
  1
SPATIAL_FILTER
  2
AcDbSpatialFilter
  3
"Acad"
 90
        0
280
     0
281
     0
  0
CLASS
  1
XRECORD
  2
AcDbXrecord
  3
"<Built In>"
 90
        0
280
     0
281
     0
  0
CLASS
  1
SORTENTSTABLE
  2
AcDbSortentsTable
  3
"AutoCAD"
 90
        0
280
     0
281
     0
  0
CLASS
  1
LAYER_INDEX
  2
AcDbLayerIndex
  3
"Acad"
 90
        0
280
     0
281
     0
  0
CLASS
  1
SPATIAL_INDEX
  2
AcDbSpatialIndex
  3
"Acad"
 90
        0
280
     0
281
     0
  0
CLASS
  1
OBJECT_PTR
  2
CAseDLPNTableRecord
  3
"ASE-LPNTableRecord"
 90
        1
280
     0
281
     0
  0
CLASS
  1
LAYOUT
  2
AcDbLayout
  3
"AutoCAD 2000"
 90
        1
280
     0
281
     0
  0
CLASS
  1
PLOTSETTINGS
  2
AcDbPlotSettings
  3
"AutoCAD 2000"
 90
        1
280
     0
281
     0
  0
CLASS
  1
ACDBDICTIONARYWDFLT
  2
AcDbDictionaryWithDefault
  3
"AutoCAD 2000"
 90
        1
280
     0
281
     0
  0
CLASS
  1
ACDBPLACEHOLDER
  2
AcDbPlaceHolder
  3
"AutoCAD 2000"
 90
        1
280
     0
281
     0
  0
CLASS
  1
VBA_PROJECT
  2
AcDbVbaProject
  3
"acadvba"
 90
        1
280
     0
281
     0
  0
CLASS
  1
WIPEOUT
  2
AcDbWipeout
  3
WipeOut|AutoCAD Express Tool|expresstools@autodesk.com
 90
      127
280
     0
281
     1
  0
CLASS
  1
WIPEOUTVARIABLES
  2
AcDbWipeoutVariables
  3
WipeOut|AutoCAD Express Tool|expresstools@autodesk.com
 90
        0
280
     0
281
     0
  0
CLASS
  1
RTEXT
  2
RText
  3
RText|AutoCAD Express Tool|expresstools@autodesk.com
 90
        0
280
     0
281
     1
  0
CLASS
  1
ARCALIGNEDTEXT
  2
AcDbArcAlignedText
  3
ATEXT|AutoCAD Express Tool|expresstools@autodesk.com
 90
        0
280
     0
281
     1
  0
ENDSEC
  0
SECTION
  2
TABLES
  0
TABLE
  2
VPORT
  5
7
100
AcDbSymbolTable
 70
     1
  0
VPORT
  5
15
100
AcDbSymbolTableRecord
100
AcDbViewportTableRecord
  2
*ACTIVE
 70
     0
 10
0.0
 20
0.0
 11
1.0
 21
1.0
 12
6.591288
 22
4.579184
 13
0.0
 23
0.0
 14
1.0
 24
1.0
 15
0.0
 25
0.0
 16
0.0
 26
0.0
 36
1.0
 17
0.0
 27
0.0
 37
0.0
 40
9.158369
 41
0.688564
 42
50.0
 43
0.0
 44
0.0
 50
0.0
 51
0.0
 71
     0
 72
   100
 73
     1
 74
     1
 75
     0
 76
     0
 77
     0
 78
     0
  0
ENDTAB
  0
TABLE
  2
LTYPE
  5
4
100
AcDbSymbolTable
 70
     9
  0
LTYPE
  5
11
100
AcDbSymbolTableRecord
100
AcDbLinetypeTableRecord
  2
BYBLOCK
 70
    64
  3

 72
    65
 73
     0
 40
0.0
  0
LTYPE
  5
12
100
AcDbSymbolTableRecord
100
AcDbLinetypeTableRecord
  2
BYLAYER
 70
    64
  3

 72
    65
 73
     0
 40
0.0
  0
LTYPE
  5
13
100
AcDbSymbolTableRecord
100
AcDbLinetypeTableRecord
  2
CONTINUOUS
 70
    64
  3
Solid line
 72
    65
 73
     0
 40
0.0
  0
LTYPE
  5
1E
100
AcDbSymbolTableRecord
100
AcDbLinetypeTableRecord
  2
HIDDEN
 70
    64
  3
- - - - - - - - 
 72
    65
 73
     2
 40
12.6
 49
8.4
 74
     0
 49
-4.2
 74
     0
  0
LTYPE
  5
1F
100
AcDbSymbolTableRecord
100
AcDbLinetypeTableRecord
  2
DOT
 70
    64
  3
･ ･ ･ ･ ･ ･ ･ ･ 
 72
    65
 73
     2
 40
8.0
 49
6.0
 74
     0
 49
-2.0
 74
     0
  0
LTYPE
  5
20
100
AcDbSymbolTableRecord
100
AcDbLinetypeTableRecord
  2
CENTER
 70
    64
  3
- ･ - ･ - ･ - ･ 
 72
    65
 73
     4
 40
50.5
 49
30.0
 74
     0
 49
-9.0
 74
     0
 49
2.5
 74
     0
 49
-9.0
 74
     0
  0
LTYPE
  5
21
100
AcDbSymbolTableRecord
100
AcDbLinetypeTableRecord
  2
PHANTOM
 70
    64
  3
- ･･ - ･･ - ･･ - ･･ 
 72
    65
 73
     6
 40
58.0
 49
30.0
 74
     0
 49
-9.0
 74
     0
 49
2.5
 74
     0
 49
-5.0
 74
     0
 49
2.5
 74
     0
 49
-9.0
 74
     0
  0
LTYPE
  5
22
100
AcDbSymbolTableRecord
100
AcDbLinetypeTableRecord
  2
ACAD_ISO06W100
 70
    64
  3
____ ... ____ ... ____
 72
    65
 73
     8
 40
37.5
 49
24.0
 74
     0
 49
-3.0
 74
     0
 49
0.5
 74
     0
 49
-3.0
 74
     0
 49
0.5
 74
     0
 49
-3.0
 74
     0
 49
0.5
 74
     0
 49
-3.0
 74
     0
  0
LTYPE
  5
23
100
AcDbSymbolTableRecord
100
AcDbLinetypeTableRecord
  2
ACAD_ISO14W100
 70
    64
  3
__ . . . __ . . . __ . . . 
 72
    65
 73
     8
 40
25.5
 49
12.0
 74
     0
 49
-3.0
 74
     0
 49
0.5
 74
     0
 49
-3.0
 74
     0
 49
0.5
 74
     0
 49
-3.0
 74
     0
 49
0.5
 74
     0
 49
-3.0
 74
     0
  0
ENDTAB
  0
TABLE
  2
LAYER
  5
2
100
AcDbSymbolTable
 70
    23
  0
LAYER
  5
14
100
AcDbSymbolTableRecord
100
AcDbLayerTableRecord
  2
0
 70
     0
 62
     7
  6
CONTINUOUS
  0
LAYER
  5
24
100
AcDbSymbolTableRecord
100
AcDbLayerTableRecord
  2
1
 70
     0
 62
     7
  6
CONTINUOUS
  0
LAYER
  5
25
100
AcDbSymbolTableRecord
100
AcDbLayerTableRecord
  2
2
 70
     0
 62
     7
  6
CONTINUOUS
  0
LAYER
  5
26
100
AcDbSymbolTableRecord
100
AcDbLayerTableRecord
  2
3
 70
     0
 62
   214
  6
CONTINUOUS
  0
LAYER
  5
27
100
AcDbSymbolTableRecord
100
AcDbLayerTableRecord
  2
4
 70
     0
 62
    54
  6
CONTINUOUS
  0
LAYER
  5
28
100
AcDbSymbolTableRecord
100
AcDbLayerTableRecord
  2
5
 70
     0
 62
    94
  6
CONTINUOUS
  0
LAYER
  5
29
100
AcDbSymbolTableRecord
100
AcDbLayerTableRecord
  2
6
 70
     0
 62
    14
  6
CONTINUOUS
  0
LAYER
  5
2A
100
AcDbSymbolTableRecord
100
AcDbLayerTableRecord
  2
7
 70
     0
 62
     4
  6
CONTINUOUS
  0
LAYER
  5
2B
100
AcDbSymbolTableRecord
100
AcDbLayerTableRecord
  2
8
 70
     0
 62
     6
  6
CONTINUOUS
  0
LAYER
  5
2C
100
AcDbSymbolTableRecord
100
AcDbLayerTableRecord
  2
9
 70
     0
 62
     2
  6
CONTINUOUS
  0
LAYER
  5
2D
100
AcDbSymbolTableRecord
100
AcDbLayerTableRecord
  2
10
 70
     0
 62
     3
  6
CONTINUOUS
  0
LAYER
  5
2E
100
AcDbSymbolTableRecord
100
AcDbLayerTableRecord
  2
11
 70
     0
 62
   251
  6
CONTINUOUS
  0
LAYER
  5
2F
100
AcDbSymbolTableRecord
100
AcDbLayerTableRecord
  2
12
 70
     0
 62
   136
  6
CONTINUOUS
  0
LAYER
  5
30
100
AcDbSymbolTableRecord
100
AcDbLayerTableRecord
  2
13
 70
     0
 62
   216
  6
CONTINUOUS
  0
LAYER
  5
31
100
AcDbSymbolTableRecord
100
AcDbLayerTableRecord
  2
14
 70
     0
 62
    56
  6
CONTINUOUS
  0
LAYER
  5
32
100
AcDbSymbolTableRecord
100
AcDbLayerTableRecord
  2
15
 70
     0
 62
    96
  6
CONTINUOUS
  0
LAYER
  5
33
100
AcDbSymbolTableRecord
100
AcDbLayerTableRecord
  2
16
 70
     0
 62
    16
  6
CONTINUOUS
  0
LAYER
  5
34
100
AcDbSymbolTableRecord
100
AcDbLayerTableRecord
  2
17
 70
     0
 62
   132
  6
CONTINUOUS
  0
LAYER
  5
35
100
AcDbSymbolTableRecord
100
AcDbLayerTableRecord
  2
18
 70
     0
 62
   212
  6
CONTINUOUS
  0
LAYER
  5
36
100
AcDbSymbolTableRecord
100
AcDbLayerTableRecord
  2
19
 70
     0
 62
    52
  6
CONTINUOUS
  0
LAYER
  5
37
100
AcDbSymbolTableRecord
100
AcDbLayerTableRecord
  2
20
 70
     0
 62
   250
  6
CONTINUOUS
  0
LAYER
  5
38
100
AcDbSymbolTableRecord
100
AcDbLayerTableRecord
  2
21
 70
     0
 62
     7
  6
CONTINUOUS
  0
LAYER
  5
39
100
AcDbSymbolTableRecord
100
AcDbLayerTableRecord
  2
22
 70
     0
 62
     7
  6
CONTINUOUS
  0
ENDTAB
  0
TABLE
  2
STYLE
  5
3
100
AcDbSymbolTable
 70
     2
  0
STYLE
  5
17
100
AcDbSymbolTableRecord
100
AcDbTextStyleTableRecord
  2
STANDARD
 70
     0
 40
0.0
 41
1.0
 50
0.0
 71
     0
 42
0.0
  3
txt
  4
bigfont
  0
STYLE
  5
1D
100
AcDbSymbolTableRecord
100
AcDbTextStyleTableRecord
  2
T_STANDARD
 70
    68
 40
10.0
 41
1.0
 50
0.0
 71
     0
 42
10.0
  3
txt
  4
bigfont
  0
ENDTAB
  0
TABLE
  2
VIEW
  5
5
100
AcDbSymbolTable
 70
     0
  0
ENDTAB
  0
TABLE
  2
UCS
  5
6
100
AcDbSymbolTable
 70
     0
  0
ENDTAB
  0
TABLE
  2
APPID
  5
8
100
AcDbSymbolTable
 70
     1
  0
APPID
  5
16
100
AcDbSymbolTableRecord
100
AcDbRegAppTableRecord
  2
ACAD
 70
     0
  0
ENDTAB
  0
TABLE
  2
DIMSTYLE
  5
9
100
AcDbSymbolTable
 70
     1
  0
DIMSTYLE
105
18
100
AcDbSymbolTableRecord
100
AcDbDimStyleTableRecord
  2
STANDARD
 70
     0
  3

  4

  5

  6

  7

 40
1.0
 41
0.18
 42
0.0625
 43
0.38
 44
0.18
 45
0.0
 46
0.0
 47
0.0
 48
0.0
 71
     0
 72
     0
 73
     1
 74
     1
 75
     0
 76
     0
 77
     0
 78
     0
140
0.18
141
0.09
142
0.0
143
25.4
144
1.0
145
0.0
146
1.0
147
0.09
170
     0
171
     2
172
     0
173
     0
174
     0
175
     0
176
     0
177
     0
178
     0
270
     2
271
     4
272
     4
273
     2
274
     2
275
     0
280
     0
281
     0
282
     0
283
     1
284
     0
285
     0
286
     0
287
     0
288
     0
340
17
  0
ENDTAB
  0
TABLE
  2
BLOCK_RECORD
  5
1
100
AcDbSymbolTable
 70
     7
  0
BLOCK_RECORD
  5
A
100
AcDbSymbolTableRecord
100
AcDbBlockTableRecord
  2
*MODEL_SPACE
  0
BLOCK_RECORD
  5
B
100
AcDbSymbolTableRecord
100
AcDbBlockTableRecord
  2
*PAPER_SPACE
  0
BLOCK_RECORD
  5
3A
100
AcDbSymbolTableRecord
100
AcDbBlockTableRecord
  2
*G0
  0
BLOCK_RECORD
  5
318
100
AcDbSymbolTableRecord
100
AcDbBlockTableRecord
  2
*G1
  0
BLOCK_RECORD
  5
324
100
AcDbSymbolTableRecord
100
AcDbBlockTableRecord
  2
*G2
  0
BLOCK_RECORD
  5
330
100
AcDbSymbolTableRecord
100
AcDbBlockTableRecord
  2
*G3
  0
BLOCK_RECORD
  5
33C
100
AcDbSymbolTableRecord
100
AcDbBlockTableRecord
  2
*G4
  0
BLOCK_RECORD
  5
347
100
AcDbSymbolTableRecord
100
AcDbBlockTableRecord
  2
*G5
  0
BLOCK_RECORD
  5
353
100
AcDbSymbolTableRecord
100
AcDbBlockTableRecord
  2
*G6
  0
ENDTAB
  0
ENDSEC
  0
SECTION
  2
BLOCKS
  0
BLOCK
  5
D
100
AcDbEntity
  8
0
100
AcDbBlockBegin
  2
*MODEL_SPACE
 70
     0
 10
0.0
 20
0.0
 30
0.0
  3
*MODEL_SPACE
  1

  0
ENDBLK
  5
E
100
AcDbEntity
  8
0
100
AcDbBlockEnd
  0
BLOCK
  5
F
100
AcDbEntity
 67
     1
  8
0
100
AcDbBlockBegin
  2
*PAPER_SPACE
 70
     0
 10
0.0
 20
0.0
 30
0.0
  3
*PAPER_SPACE
  1

  0
ENDBLK
  5
10
100
AcDbEntity
 67
     1
  8
0
100
AcDbBlockEnd
  0
BLOCK
  5
3B
100
AcDbEntity
  8
0
  6
CONTINUOUS
 62
     7
100
AcDbBlockBegin
  2
*G0
 70
     0
 10
0.0
 20
0.0
 30
0.0
  3
*G0
  1

  0
ENDBLK
  5
3C
100
AcDbEntity
  8
0
100
AcDbBlockEnd
  0
BLOCK
  5
319
100
AcDbEntity
  8
2
  6
CONTINUOUS
 62
     7
100
AcDbBlockBegin
  2
*G1
 70
     0
 10
0.0
 20
0.0
 30
0.0
  3
*G1
  1

  0
LINE
  5
31A
100
AcDbEntity
  8
2
  6
CONTINUOUS
 62
     7
100
AcDbLine
 10
1009.150997
 20
597.462424
 30
0.0
 11
1409.150997
 21
597.462424
 31
0.0
  0
LINE
  5
31B
100
AcDbEntity
  8
2
  6
CONTINUOUS
 62
     7
100
AcDbLine
 10
1009.150997
 20
612.462424
 30
0.0
 11
1009.150997
 21
546.146924
 31
0.0
  0
LINE
  5
31C
100
AcDbEntity
  8
2
  6
CONTINUOUS
 62
     7
100
AcDbLine
 10
1409.150997
 20
612.462424
 30
0.0
 11
1409.150997
 21
592.486924
 31
0.0
  0
LINE
  5
31D
100
AcDbEntity
  8
2
  6
CONTINUOUS
 62
     7
100
AcDbLine
 10
1009.150997
 20
597.462424
 30
0.0
 11
1028.469513
 21
602.638805
 31
0.0
  0
LINE
  5
31E
100
AcDbEntity
  8
2
  6
CONTINUOUS
 62
     7
100
AcDbLine
 10
1009.150997
 20
597.462424
 30
0.0
 11
1028.469513
 21
592.286043
 31
0.0
  0
LINE
  5
31F
100
AcDbEntity
  8
2
  6
CONTINUOUS
 62
     7
100
AcDbLine
 10
1409.150997
 20
597.462424
 30
0.0
 11
1389.83248
 21
592.286043
 31
0.0
  0
LINE
  5
320
100
AcDbEntity
  8
2
  6
CONTINUOUS
 62
     7
100
AcDbLine
 10
1409.150997
 20
597.462424
 30
0.0
 11
1389.83248
 21
602.638805
 31
0.0
  0
TEXT
  5
321
100
AcDbEntity
  8
2
  6
CONTINUOUS
 62
     7
100
AcDbText
 10
1179.150997
 20
597.462424
 30
0.0
 40
40.0
  1
400
 41
0.5
 51
15.0
 11
1179.150997
 21
597.462424
 31
0.0
100
AcDbText
 73
     1
  0
ENDBLK
  5
322
100
AcDbEntity
  8
0
100
AcDbBlockEnd
  0
BLOCK
  5
325
100
AcDbEntity
  8
2
  6
CONTINUOUS
 62
     7
100
AcDbBlockBegin
  2
*G2
 70
     0
 10
0.0
 20
0.0
 30
0.0
  3
*G2
  1

  0
LINE
  5
326
100
AcDbEntity
  8
2
  6
CONTINUOUS
 62
     7
100
AcDbLine
 10
1012.150997
 20
555.917076
 30
0.0
 11
1009.150997
 21
555.917076
 31
0.0
  0
LINE
  5
327
100
AcDbEntity
  8
2
  6
CONTINUOUS
 62
     7
100
AcDbLine
 10
1012.150997
 20
570.917076
 30
0.0
 11
1012.150997
 21
531.496924
 31
0.0
  0
LINE
  5
328
100
AcDbEntity
  8
2
  6
CONTINUOUS
 62
     7
100
AcDbLine
 10
1009.150997
 20
570.917076
 30
0.0
 11
1009.150997
 21
546.146924
 31
0.0
  0
LINE
  5
329
100
AcDbEntity
  8
2
  6
CONTINUOUS
 62
     7
100
AcDbLine
 10
1012.150997
 20
555.917076
 30
0.0
 11
992.83248
 21
550.740695
 31
0.0
  0
LINE
  5
32A
100
AcDbEntity
  8
2
  6
CONTINUOUS
 62
     7
100
AcDbLine
 10
1012.150997
 20
555.917076
 30
0.0
 11
992.83248
 21
561.093457
 31
0.0
  0
LINE
  5
32B
100
AcDbEntity
  8
2
  6
CONTINUOUS
 62
     7
100
AcDbLine
 10
1009.150997
 20
555.917076
 30
0.0
 11
1028.469513
 21
561.093457
 31
0.0
  0
LINE
  5
32C
100
AcDbEntity
  8
2
  6
CONTINUOUS
 62
     7
100
AcDbLine
 10
1009.150997
 20
555.917076
 30
0.0
 11
1028.469513
 21
550.740695
 31
0.0
  0
TEXT
  5
32D
100
AcDbEntity
  8
2
  6
CONTINUOUS
 62
     7
100
AcDbText
 10
1000.650997
 20
555.917076
 30
0.0
 40
40.0
  1
3
 41
0.5
 51
15.0
 11
1000.650997
 21
555.917076
 31
0.0
100
AcDbText
 73
     1
  0
ENDBLK
  5
32E
100
AcDbEntity
  8
0
100
AcDbBlockEnd
  0
BLOCK
  5
331
100
AcDbEntity
  8
2
  6
CONTINUOUS
 62
     7
100
AcDbBlockBegin
  2
*G3
 70
     0
 10
0.0
 20
0.0
 30
0.0
  3
*G3
  1

  0
LINE
  5
332
100
AcDbEntity
  8
2
  6
CONTINUOUS
 62
     7
100
AcDbLine
 10
1209.150997
 20
271.987924
 30
0.0
 11
1009.150997
 21
271.987924
 31
0.0
  0
LINE
  5
333
100
AcDbEntity
  8
2
  6
CONTINUOUS
 62
     7
100
AcDbLine
 10
1209.150997
 20
256.987924
 30
0.0
 11
1209.150997
 21
338.587924
 31
0.0
  0
LINE
  5
334
100
AcDbEntity
  8
2
  6
CONTINUOUS
 62
     7
100
AcDbLine
 10
1009.150997
 20
256.987924
 30
0.0
 11
1009.150997
 21
435.146924
 31
0.0
  0
LINE
  5
335
100
AcDbEntity
  8
2
  6
CONTINUOUS
 62
     7
100
AcDbLine
 10
1209.150997
 20
271.987924
 30
0.0
 11
1189.83248
 21
266.811543
 31
0.0
  0
LINE
  5
336
100
AcDbEntity
  8
2
  6
CONTINUOUS
 62
     7
100
AcDbLine
 10
1209.150997
 20
271.987924
 30
0.0
 11
1189.83248
 21
277.164305
 31
0.0
  0
LINE
  5
337
100
AcDbEntity
  8
2
  6
CONTINUOUS
 62
     7
100
AcDbLine
 10
1009.150997
 20
271.987924
 30
0.0
 11
1028.469513
 21
277.164305
 31
0.0
  0
LINE
  5
338
100
AcDbEntity
  8
2
  6
CONTINUOUS
 62
     7
100
AcDbLine
 10
1009.150997
 20
271.987924
 30
0.0
 11
1028.469513
 21
266.811543
 31
0.0
  0
TEXT
  5
339
100
AcDbEntity
  8
2
  6
CONTINUOUS
 62
     7
100
AcDbText
 10
1079.150997
 20
271.987924
 30
0.0
 40
40.0
  1
200
 41
0.5
 51
15.0
 11
1079.150997
 21
271.987924
 31
0.0
100
AcDbText
 73
     1
  0
ENDBLK
  5
33A
100
AcDbEntity
  8
0
100
AcDbBlockEnd
  0
BLOCK
  5
33D
100
AcDbEntity
  8
2
  6
CONTINUOUS
 62
     7
100
AcDbBlockBegin
  2
*G4
 70
     0
 10
0.0
 20
0.0
 30
0.0
  3
*G4
  1

  0
LINE
  5
33E
100
AcDbEntity
  8
2
  6
CONTINUOUS
 62
     7
100
AcDbLine
 10
1609.150997
 20
271.987924
 30
0.0
 11
1809.150997
 21
271.987924
 31
0.0
  0
LINE
  5
33F
100
AcDbEntity
  8
2
  6
CONTINUOUS
 62
     7
100
AcDbLine
 10
1809.150997
 20
256.987924
 30
0.0
 11
1809.150997
 21
435.146924
 31
0.0
  0
LINE
  5
340
100
AcDbEntity
  8
2
  6
CONTINUOUS
 62
     7
100
AcDbLine
 10
1609.150997
 20
271.987924
 30
0.0
 11
1628.469513
 21
277.164305
 31
0.0
  0
LINE
  5
341
100
AcDbEntity
  8
2
  6
CONTINUOUS
 62
     7
100
AcDbLine
 10
1609.150997
 20
271.987924
 30
0.0
 11
1628.469513
 21
266.811543
 31
0.0
  0
LINE
  5
342
100
AcDbEntity
  8
2
  6
CONTINUOUS
 62
     7
100
AcDbLine
 10
1809.150997
 20
271.987924
 30
0.0
 11
1789.83248
 21
266.811543
 31
0.0
  0
LINE
  5
343
100
AcDbEntity
  8
2
  6
CONTINUOUS
 62
     7
100
AcDbLine
 10
1809.150997
 20
271.987924
 30
0.0
 11
1789.83248
 21
277.164305
 31
0.0
  0
TEXT
  5
344
100
AcDbEntity
  8
2
  6
CONTINUOUS
 62
     7
100
AcDbText
 10
1679.150997
 20
271.987924
 30
0.0
 40
40.0
  1
200
 41
0.5
 51
15.0
 11
1679.150997
 21
271.987924
 31
0.0
100
AcDbText
 73
     1
  0
ENDBLK
  5
345
100
AcDbEntity
  8
0
100
AcDbBlockEnd
  0
BLOCK
  5
348
100
AcDbEntity
  8
2
  6
CONTINUOUS
 62
     7
100
AcDbBlockBegin
  2
*G5
 70
     0
 10
0.0
 20
0.0
 30
0.0
  3
*G5
  1

  0
LINE
  5
349
100
AcDbEntity
  8
2
  6
CONTINUOUS
 62
     7
100
AcDbLine
 10
1209.150997
 20
271.987924
 30
0.0
 11
1609.150997
 21
271.987924
 31
0.0
  0
LINE
  5
34A
100
AcDbEntity
  8
2
  6
CONTINUOUS
 62
     7
100
AcDbLine
 10
1209.150997
 20
256.987924
 30
0.0
 11
1209.150997
 21
338.587924
 31
0.0
  0
LINE
  5
34B
100
AcDbEntity
  8
2
  6
CONTINUOUS
 62
     7
100
AcDbLine
 10
1609.150997
 20
256.987924
 30
0.0
 11
1609.150997
 21
338.587924
 31
0.0
  0
LINE
  5
34C
100
AcDbEntity
  8
2
  6
CONTINUOUS
 62
     7
100
AcDbLine
 10
1209.150997
 20
271.987924
 30
0.0
 11
1228.469513
 21
277.164305
 31
0.0
  0
LINE
  5
34D
100
AcDbEntity
  8
2
  6
CONTINUOUS
 62
     7
100
AcDbLine
 10
1209.150997
 20
271.987924
 30
0.0
 11
1228.469513
 21
266.811543
 31
0.0
  0
LINE
  5
34E
100
AcDbEntity
  8
2
  6
CONTINUOUS
 62
     7
100
AcDbLine
 10
1609.150997
 20
271.987924
 30
0.0
 11
1589.83248
 21
266.811543
 31
0.0
  0
LINE
  5
34F
100
AcDbEntity
  8
2
  6
CONTINUOUS
 62
     7
100
AcDbLine
 10
1609.150997
 20
271.987924
 30
0.0
 11
1589.83248
 21
277.164305
 31
0.0
  0
TEXT
  5
350
100
AcDbEntity
  8
2
  6
CONTINUOUS
 62
     7
100
AcDbText
 10
1379.150997
 20
271.987924
 30
0.0
 40
40.0
  1
400
 41
0.5
 51
15.0
 11
1379.150997
 21
271.987924
 31
0.0
100
AcDbText
 73
     1
  0
ENDBLK
  5
351
100
AcDbEntity
  8
0
100
AcDbBlockEnd
  0
BLOCK
  5
354
100
AcDbEntity
  8
2
  6
CONTINUOUS
 62
     7
100
AcDbBlockBegin
  2
*G6
 70
     0
 10
0.0
 20
0.0
 30
0.0
  3
*G6
  1

  0
LINE
  5
355
100
AcDbEntity
  8
2
  6
CONTINUOUS
 62
     7
100
AcDbLine
 10
1009.150997
 20
179.027424
 30
0.0
 11
1809.150997
 21
179.027424
 31
0.0
  0
LINE
  5
356
100
AcDbEntity
  8
2
  6
CONTINUOUS
 62
     7
100
AcDbLine
 10
1009.150997
 20
164.027424
 30
0.0
 11
1009.150997
 21
230.557924
 31
0.0
  0
LINE
  5
357
100
AcDbEntity
  8
2
  6
CONTINUOUS
 62
     7
100
AcDbLine
 10
1809.150997
 20
164.027424
 30
0.0
 11
1809.150997
 21
230.557924
 31
0.0
  0
LINE
  5
358
100
AcDbEntity
  8
2
  6
CONTINUOUS
 62
     7
100
AcDbLine
 10
1009.150997
 20
179.027424
 30
0.0
 11
1028.469513
 21
184.203805
 31
0.0
  0
LINE
  5
359
100
AcDbEntity
  8
2
  6
CONTINUOUS
 62
     7
100
AcDbLine
 10
1009.150997
 20
179.027424
 30
0.0
 11
1028.469513
 21
173.851043
 31
0.0
  0
LINE
  5
35A
100
AcDbEntity
  8
2
  6
CONTINUOUS
 62
     7
100
AcDbLine
 10
1809.150997
 20
179.027424
 30
0.0
 11
1789.83248
 21
173.851043
 31
0.0
  0
LINE
  5
35B
100
AcDbEntity
  8
2
  6
CONTINUOUS
 62
     7
100
AcDbLine
 10
1809.150997
 20
179.027424
 30
0.0
 11
1789.83248
 21
184.203805
 31
0.0
  0
TEXT
  5
35C
100
AcDbEntity
  8
2
  6
CONTINUOUS
 62
     7
100
AcDbText
 10
1379.150997
 20
179.027424
 30
0.0
 40
40.0
  1
800
 41
0.5
 51
15.0
 11
1379.150997
 21
179.027424
 31
0.0
100
AcDbText
 73
     1
  0
ENDBLK
  5
35D
100
AcDbEntity
  8
0
100
AcDbBlockEnd
  0
ENDSEC
  0
SECTION
  2
ENTITIES
  0
INSERT
  5
3D
100
AcDbEntity
  8
0
  6
CONTINUOUS
 62
     7
100
AcDbBlockReference
  2
*G0
 10
0.0
 20
0.0
 30
0.0
  0
LINE
  5
3E
100
AcDbEntity
  8
2
  6
CONTINUOUS
 62
     7
100
AcDbLine
 10
1009.150997
 20
516.146924
 30
0.0
 11
1009.150997
 21
465.146924
 31
0.0
  0
LINE
  5
3F
100
AcDbEntity
  8
2
  6
CONTINUOUS
 62
     7
100
AcDbLine
 10
1009.150997
 20
465.146924
 30
0.0
 11
1010.150997
 21
465.146924
 31
0.0
  0
LINE
  5
40
100
AcDbEntity
  8
2
  6
CONTINUOUS
 62
     7
100
AcDbLine
 10
1009.150997
 20
516.146924
 30
0.0
 11
1010.150997
 21
516.146924
 31
0.0
  0
LINE
  5
41
100
AcDbEntity
  8
2
  6
CONTINUOUS
 62
     7
100
AcDbLine
 10
1012.150997
 20
538.146924
 30
0.0
 11
1021.150997
 21
538.146924
 31
0.0
  0
LINE
  5
42
100
AcDbEntity
  8
2
  6
CONTINUOUS
 62
     7
100
AcDbLine
 10
1012.150997
 20
443.146924
 30
0.0
 11
1021.150997
 21
443.146924
 31
0.0
  0
LINE
  5
43
100
AcDbEntity
  8
2
  6
CONTINUOUS
 62
     7
100
AcDbLine
 10
1027.150997
 20
508.496924
 30
0.0
 11
1029.150997
 21
508.496924
 31
0.0
  0
LINE
  5
44
100
AcDbEntity
  8
2
  6
CONTINUOUS
 62
     7
100
AcDbLine
 10
1029.150997
 20
506.496924
 30
0.0
 11
1034.150997
 21
501.496924
 31
0.0
  0
LINE
  5
45
100
AcDbEntity
  8
2
  6
CONTINUOUS
 62
     7
100
AcDbLine
 10
1023.150997
 20
445.146924
 30
0.0
 11
1023.150997
 21
490.646924
 31
0.0
  0
LINE
  5
46
100
AcDbEntity
  8
2
  6
CONTINUOUS
 62
     7
100
AcDbLine
 10
1027.150997
 20
472.796924
 30
0.0
 11
1029.150997
 21
472.796924
 31
0.0
  0
LINE
  5
47
100
AcDbEntity
  8
2
  6
CONTINUOUS
 62
     7
100
AcDbLine
 10
1029.150997
 20
472.796924
 30
0.0
 11
1029.150997
 21
490.646924
 31
0.0
  0
LINE
  5
48
100
AcDbEntity
  8
2
  6
CONTINUOUS
 62
     7
100
AcDbLine
 10
1029.150997
 20
474.796924
 30
0.0
 11
1034.150997
 21
479.796924
 31
0.0
  0
LINE
  5
49
100
AcDbEntity
  8
2
  6
CONTINUOUS
 62
     7
100
AcDbLine
 10
1034.150997
 20
490.646924
 30
0.0
 11
1034.150997
 21
479.796924
 31
0.0
  0
LINE
  5
4A
100
AcDbEntity
  8
2
  6
CONTINUOUS
 62
     7
100
AcDbLine
 10
1010.150997
 20
490.646924
 30
0.0
 11
1010.150997
 21
445.146924
 31
0.0
  0
LINE
  5
4B
100
AcDbEntity
  8
2
  6
CONTINUOUS
 62
     7
100
AcDbLine
 10
1034.150997
 20
479.796924
 30
0.0
 11
1200.150997
 21
479.796924
 31
0.0
  0
LINE
  5
4C
100
AcDbEntity
  8
2
  6
CONTINUOUS
 62
     7
100
AcDbLine
 10
1809.150997
 20
516.146924
 30
0.0
 11
1809.150997
 21
465.146924
 31
0.0
  0
LINE
  5
4D
100
AcDbEntity
  8
2
  6
CONTINUOUS
 62
     7
100
AcDbLine
 10
1809.150997
 20
465.146924
 30
0.0
 11
1808.150997
 21
465.146924
 31
0.0
  0
LINE
  5
4E
100
AcDbEntity
  8
2
  6
CONTINUOUS
 62
     7
100
AcDbLine
 10
1809.150997
 20
516.146924
 30
0.0
 11
1808.150997
 21
516.146924
 31
0.0
  0
LINE
  5
4F
100
AcDbEntity
  8
2
  6
CONTINUOUS
 62
     7
100
AcDbLine
 10
1806.150997
 20
538.146924
 30
0.0
 11
1797.150997
 21
538.146924
 31
0.0
  0
LINE
  5
50
100
AcDbEntity
  8
2
  6
CONTINUOUS
 62
     7
100
AcDbLine
 10
1806.150997
 20
443.146924
 30
0.0
 11
1797.150997
 21
443.146924
 31
0.0
  0
LINE
  5
51
100
AcDbEntity
  8
2
  6
CONTINUOUS
 62
     7
100
AcDbLine
 10
1791.150997
 20
508.496924
 30
0.0
 11
1789.150997
 21
508.496924
 31
0.0
  0
LINE
  5
52
100
AcDbEntity
  8
2
  6
CONTINUOUS
 62
     7
100
AcDbLine
 10
1789.150997
 20
506.496924
 30
0.0
 11
1784.150997
 21
501.496924
 31
0.0
  0
LINE
  5
53
100
AcDbEntity
  8
2
  6
CONTINUOUS
 62
     7
100
AcDbLine
 10
1795.150997
 20
445.146924
 30
0.0
 11
1795.150997
 21
490.646924
 31
0.0
  0
LINE
  5
54
100
AcDbEntity
  8
2
  6
CONTINUOUS
 62
     7
100
AcDbLine
 10
1791.150997
 20
472.796924
 30
0.0
 11
1789.150997
 21
472.796924
 31
0.0
  0
LINE
  5
55
100
AcDbEntity
  8
2
  6
CONTINUOUS
 62
     7
100
AcDbLine
 10
1789.150997
 20
472.796924
 30
0.0
 11
1789.150997
 21
490.646924
 31
0.0
  0
LINE
  5
56
100
AcDbEntity
  8
2
  6
CONTINUOUS
 62
     7
100
AcDbLine
 10
1789.150997
 20
474.796924
 30
0.0
 11
1784.150997
 21
479.796924
 31
0.0
  0
LINE
  5
57
100
AcDbEntity
  8
2
  6
CONTINUOUS
 62
     7
100
AcDbLine
 10
1784.150997
 20
490.646924
 30
0.0
 11
1784.150997
 21
479.796924
 31
0.0
  0
LINE
  5
58
100
AcDbEntity
  8
2
  6
CONTINUOUS
 62
     7
100
AcDbLine
 10
1808.150997
 20
490.646924
 30
0.0
 11
1808.150997
 21
445.146924
 31
0.0
  0
LINE
  5
59
100
AcDbEntity
  8
2
  6
CONTINUOUS
 62
     7
100
AcDbLine
 10
1600.150997
 20
479.796924
 30
0.0
 11
1600.150997
 21
471.796924
 31
0.0
  0
LINE
  5
5A
100
AcDbEntity
  8
2
  6
CONTINUOUS
 62
     7
100
AcDbLine
 10
1600.150997
 20
471.796924
 30
0.0
 11
1609.150997
 21
471.796924
 31
0.0
  0
LINE
  5
5B
100
AcDbEntity
  8
2
  6
CONTINUOUS
 62
     7
100
AcDbLine
 10
1600.803997
 20
464.796924
 30
0.0
 11
1600.620497
 21
471.796924
 31
0.0
  0
LINE
  5
5C
100
AcDbEntity
  8
2
  6
CONTINUOUS
 62
     7
100
AcDbLine
 10
1601.658997
 20
464.796924
 30
0.0
 11
1601.516497
 21
470.245924
 31
0.0
  0
LINE
  5
5D
100
AcDbEntity
  8
2
  6
CONTINUOUS
 62
     7
100
AcDbLine
 10
1600.620497
 20
471.796924
 30
0.0
 11
1601.516497
 21
470.245924
 31
0.0
  0
LINE
  5
5E
100
AcDbEntity
  8
2
  6
CONTINUOUS
 62
     7
100
AcDbLine
 10
1600.661497
 20
470.245424
 30
0.0
 11
1609.150997
 21
470.245424
 31
0.0
  0
LINE
  5
5F
100
AcDbEntity
  8
2
  6
CONTINUOUS
 62
     7
100
AcDbLine
 10
1617.640497
 20
470.245424
 30
0.0
 11
1609.150997
 21
470.245424
 31
0.0
  0
LINE
  5
60
100
AcDbEntity
  8
2
  6
CONTINUOUS
 62
     7
100
AcDbLine
 10
1618.150997
 20
479.796924
 30
0.0
 11
1618.150997
 21
471.796924
 31
0.0
  0
LINE
  5
61
100
AcDbEntity
  8
2
  6
CONTINUOUS
 62
     7
100
AcDbLine
 10
1618.150997
 20
471.796924
 30
0.0
 11
1609.150997
 21
471.796924
 31
0.0
  0
LINE
  5
62
100
AcDbEntity
  8
2
  6
CONTINUOUS
 62
     7
100
AcDbLine
 10
1617.497997
 20
464.796924
 30
0.0
 11
1617.681497
 21
471.796924
 31
0.0
  0
LINE
  5
63
100
AcDbEntity
  8
2
  6
CONTINUOUS
 62
     7
100
AcDbLine
 10
1616.642997
 20
464.796924
 30
0.0
 11
1616.785497
 21
470.245424
 31
0.0
  0
LINE
  5
64
100
AcDbEntity
  8
2
  6
CONTINUOUS
 62
     7
100
AcDbLine
 10
1617.680997
 20
471.796924
 30
0.0
 11
1616.785497
 21
470.245924
 31
0.0
  0
LINE
  5
65
100
AcDbEntity
  8
2
  6
CONTINUOUS
 62
     7
100
AcDbLine
 10
1618.150997
 20
476.796924
 30
0.0
 11
1621.150997
 21
479.796924
 31
0.0
  0
LINE
  5
66
100
AcDbEntity
  8
2
  6
CONTINUOUS
 62
     7
100
AcDbLine
 10
1600.150997
 20
476.796924
 30
0.0
 11
1597.150997
 21
479.796924
 31
0.0
  0
LINE
  5
67
100
AcDbEntity
  8
2
  6
CENTER
 62
     7
100
AcDbLine
 10
1609.150997
 20
516.146924
 30
0.0
 11
1609.150997
 21
465.146924
 31
0.0
  0
LINE
  5
68
100
AcDbEntity
  8
2
  6
CENTER
 62
     7
100
AcDbLine
 10
1592.524997
 20
436.796924
 30
0.0
 11
1622.869497
 21
436.796924
 31
0.0
  0
LINE
  5
69
100
AcDbEntity
  8
2
  6
CENTER
 62
     7
100
AcDbLine
 10
1609.150997
 20
468.949424
 30
0.0
 11
1609.150997
 21
368.587924
 31
0.0
  0
LINE
  5
6A
100
AcDbEntity
  8
2
  6
CONTINUOUS
 62
     7
100
AcDbLine
 10
1598.650997
 20
464.796924
 30
0.0
 11
1619.650997
 21
464.796924
 31
0.0
  0
LINE
  5
6B
100
AcDbEntity
  8
2
  6
CONTINUOUS
 62
     7
100
AcDbLine
 10
1598.650997
 20
414.796924
 30
0.0
 11
1600.650997
 21
414.796924
 31
0.0
  0
LINE
  5
6C
100
AcDbEntity
  8
2
  6
CONTINUOUS
 62
     7
100
AcDbLine
 10
1598.650997
 20
464.796924
 30
0.0
 11
1598.650997
 21
414.796924
 31
0.0
  0
LINE
  5
6D
100
AcDbEntity
  8
2
  6
CONTINUOUS
 62
     7
100
AcDbLine
 10
1619.650997
 20
464.796924
 30
0.0
 11
1619.650997
 21
414.796924
 31
0.0
  0
LINE
  5
6E
100
AcDbEntity
  8
2
  6
CONTINUOUS
 62
     7
100
AcDbLine
 10
1617.650997
 20
414.796924
 30
0.0
 11
1619.650997
 21
414.796924
 31
0.0
  0
LINE
  5
6F
100
AcDbEntity
  8
2
  6
CONTINUOUS
 62
     7
100
AcDbLine
 10
1598.650997
 20
438.796924
 30
0.0
 11
1602.442997
 21
438.796924
 31
0.0
  0
LINE
  5
70
100
AcDbEntity
  8
2
  6
CONTINUOUS
 62
     7
100
AcDbLine
 10
1602.650997
 20
451.796924
 30
0.0
 11
1615.650997
 21
451.796924
 31
0.0
  0
LINE
  5
71
100
AcDbEntity
  8
2
  6
CONTINUOUS
 62
     7
100
AcDbLine
 10
1608.150997
 20
464.296924
 30
0.0
 11
1608.150997
 21
452.796924
 31
0.0
  0
LINE
  5
72
100
AcDbEntity
  8
2
  6
CONTINUOUS
 62
     7
100
AcDbLine
 10
1610.150997
 20
464.296924
 30
0.0
 11
1610.150997
 21
452.796924
 31
0.0
  0
LINE
  5
73
100
AcDbEntity
  8
2
  6
CONTINUOUS
 62
     7
100
AcDbLine
 10
1615.650997
 20
451.796924
 30
0.0
 11
1615.650997
 21
447.296924
 31
0.0
  0
LINE
  5
74
100
AcDbEntity
  8
2
  6
CONTINUOUS
 62
     7
100
AcDbLine
 10
1608.150997
 20
452.796924
 30
0.0
 11
1610.150997
 21
452.796924
 31
0.0
  0
LINE
  5
75
100
AcDbEntity
  8
2
  6
CONTINUOUS
 62
     7
100
AcDbLine
 10
1602.650997
 20
451.796924
 30
0.0
 11
1608.150997
 21
452.796924
 31
0.0
  0
LINE
  5
76
100
AcDbEntity
  8
2
  6
CONTINUOUS
 62
     7
100
AcDbLine
 10
1610.150997
 20
452.796924
 30
0.0
 11
1615.650997
 21
451.796924
 31
0.0
  0
LINE
  5
77
100
AcDbEntity
  8
2
  6
CONTINUOUS
 62
     7
100
AcDbLine
 10
1599.150997
 20
464.296924
 30
0.0
 11
1599.150997
 21
438.796924
 31
0.0
  0
LINE
  5
78
100
AcDbEntity
  8
2
  6
CONTINUOUS
 62
     7
100
AcDbLine
 10
1599.150997
 20
429.796924
 30
0.0
 11
1599.150997
 21
415.296924
 31
0.0
  0
LINE
  5
79
100
AcDbEntity
  8
2
  6
CONTINUOUS
 62
     7
100
AcDbLine
 10
1619.150997
 20
434.796924
 30
0.0
 11
1619.150997
 21
415.296924
 31
0.0
  0
LINE
  5
7A
100
AcDbEntity
  8
2
  6
CONTINUOUS
 62
     7
100
AcDbLine
 10
1619.150997
 20
464.296924
 30
0.0
 11
1619.150997
 21
438.796924
 31
0.0
  0
LINE
  5
7B
100
AcDbEntity
  8
2
  6
CONTINUOUS
 62
     7
100
AcDbLine
 10
1608.150997
 20
464.296924
 30
0.0
 11
1610.150997
 21
464.296924
 31
0.0
  0
LINE
  5
7C
100
AcDbEntity
  8
2
  6
CONTINUOUS
 62
     7
100
AcDbLine
 10
1598.650997
 20
415.296924
 30
0.0
 11
1599.150997
 21
415.296924
 31
0.0
  0
LINE
  5
7D
100
AcDbEntity
  8
2
  6
CONTINUOUS
 62
     7
100
AcDbLine
 10
1599.150997
 20
415.296924
 30
0.0
 11
1600.650997
 21
414.796924
 31
0.0
  0
LINE
  5
7E
100
AcDbEntity
  8
2
  6
CONTINUOUS
 62
     7
100
AcDbLine
 10
1598.650997
 20
464.296924
 30
0.0
 11
1599.150997
 21
464.296924
 31
0.0
  0
LINE
  5
7F
100
AcDbEntity
  8
2
  6
CONTINUOUS
 62
     7
100
AcDbLine
 10
1619.150997
 20
464.296924
 30
0.0
 11
1619.650997
 21
464.296924
 31
0.0
  0
LINE
  5
80
100
AcDbEntity
  8
2
  6
CONTINUOUS
 62
     7
100
AcDbLine
 10
1619.150997
 20
415.296924
 30
0.0
 11
1619.650997
 21
415.296924
 31
0.0
  0
LINE
  5
81
100
AcDbEntity
  8
2
  6
CONTINUOUS
 62
     7
100
AcDbLine
 10
1617.650997
 20
414.796924
 30
0.0
 11
1619.150997
 21
415.296924
 31
0.0
  0
LINE
  5
82
100
AcDbEntity
  8
2
  6
CONTINUOUS
 62
     7
100
AcDbLine
 10
1611.150997
 20
447.296924
 30
0.0
 11
1611.150997
 21
443.796924
 31
0.0
  0
LINE
  5
83
100
AcDbEntity
  8
2
  6
CONTINUOUS
 62
     7
100
AcDbLine
 10
1609.150997
 20
443.796924
 30
0.0
 11
1611.150997
 21
443.796924
 31
0.0
  0
LINE
  5
84
100
AcDbEntity
  8
2
  6
CONTINUOUS
 62
     7
100
AcDbLine
 10
1609.150997
 20
374.796924
 30
0.0
 11
1615.150997
 21
378.260924
 31
0.0
  0
LINE
  5
85
100
AcDbEntity
  8
2
  6
CONTINUOUS
 62
     7
100
AcDbLine
 10
1615.150997
 20
378.260924
 30
0.0
 11
1617.650997
 21
414.796924
 31
0.0
  0
LINE
  5
86
100
AcDbEntity
  8
2
  6
CONTINUOUS
 62
     7
100
AcDbLine
 10
1603.150997
 20
378.260924
 30
0.0
 11
1600.650997
 21
414.796924
 31
0.0
  0
LINE
  5
87
100
AcDbEntity
  8
2
  6
CONTINUOUS
 62
     7
100
AcDbLine
 10
1609.150997
 20
374.796924
 30
0.0
 11
1603.150997
 21
378.260924
 31
0.0
  0
LINE
  5
88
100
AcDbEntity
  8
2
  6
CONTINUOUS
 62
     7
100
AcDbLine
 10
1603.013497
 20
419.796924
 30
0.0
 11
1609.150997
 21
419.796924
 31
0.0
  0
LINE
  5
89
100
AcDbEntity
  8
2
  6
CONTINUOUS
 62
     7
100
AcDbLine
 10
1603.013497
 20
419.796924
 30
0.0
 11
1602.106997
 21
418.890424
 31
0.0
  0
LINE
  5
8A
100
AcDbEntity
  8
2
  6
CONTINUOUS
 62
     7
100
AcDbLine
 10
1615.288497
 20
419.796924
 30
0.0
 11
1609.150997
 21
419.796924
 31
0.0
  0
LINE
  5
8B
100
AcDbEntity
  8
2
  6
CONTINUOUS
 62
     7
100
AcDbLine
 10
1615.288497
 20
419.796924
 30
0.0
 11
1616.194997
 21
418.890424
 31
0.0
  0
LINE
  5
8C
100
AcDbEntity
  8
2
  6
CONTINUOUS
 62
     7
100
AcDbLine
 10
1607.150997
 20
438.296924
 30
0.0
 11
1607.150997
 21
435.296924
 31
0.0
  0
LINE
  5
8D
100
AcDbEntity
  8
2
  6
CONTINUOUS
 62
     7
100
AcDbLine
 10
1611.150997
 20
438.296924
 30
0.0
 11
1611.150997
 21
435.296924
 31
0.0
  0
LINE
  5
8E
100
AcDbEntity
  8
2
  6
CONTINUOUS
 62
     7
100
AcDbLine
 10
1607.129997
 20
440.296924
 30
0.0
 11
1605.109497
 21
436.796924
 31
0.0
  0
LINE
  5
8F
100
AcDbEntity
  8
2
  6
CONTINUOUS
 62
     7
100
AcDbLine
 10
1605.109497
 20
436.796924
 30
0.0
 11
1607.130497
 21
433.296924
 31
0.0
  0
LINE
  5
90
100
AcDbEntity
  8
2
  6
CONTINUOUS
 62
     7
100
AcDbLine
 10
1611.171497
 20
433.296924
 30
0.0
 11
1607.130497
 21
433.296924
 31
0.0
  0
LINE
  5
91
100
AcDbEntity
  8
2
  6
CONTINUOUS
 62
     7
100
AcDbLine
 10
1613.192497
 20
436.796924
 30
0.0
 11
1611.171997
 21
433.296924
 31
0.0
  0
LINE
  5
92
100
AcDbEntity
  8
2
  6
CONTINUOUS
 62
     7
100
AcDbLine
 10
1611.171497
 20
440.296924
 30
0.0
 11
1613.192497
 21
436.796924
 31
0.0
  0
LINE
  5
93
100
AcDbEntity
  8
2
  6
CONTINUOUS
 62
     7
100
AcDbLine
 10
1607.130497
 20
440.296924
 30
0.0
 11
1611.171497
 21
440.296924
 31
0.0
  0
LINE
  5
94
100
AcDbEntity
  8
2
  6
CONTINUOUS
 62
     7
100
AcDbLine
 10
1602.150997
 20
425.796924
 30
0.0
 11
1616.150997
 21
425.796924
 31
0.0
  0
LINE
  5
95
100
AcDbEntity
  8
2
  6
CONTINUOUS
 62
     7
100
AcDbLine
 10
1616.150997
 20
447.296924
 30
0.0
 11
1616.150997
 21
425.796924
 31
0.0
  0
LINE
  5
96
100
AcDbEntity
  8
2
  6
CONTINUOUS
 62
     7
100
AcDbLine
 10
1602.150997
 20
436.796924
 30
0.0
 11
1602.150997
 21
434.796924
 31
0.0
  0
LINE
  5
97
100
AcDbEntity
  8
2
  6
CONTINUOUS
 62
     7
100
AcDbLine
 10
1602.150997
 20
425.796924
 30
0.0
 11
1601.150997
 21
424.796924
 31
0.0
  0
LINE
  5
98
100
AcDbEntity
  8
2
  6
CONTINUOUS
 62
     7
100
AcDbLine
 10
1616.150997
 20
425.796924
 30
0.0
 11
1617.150997
 21
424.796924
 31
0.0
  0
LINE
  5
99
100
AcDbEntity
  8
2
  6
CONTINUOUS
 62
     7
100
AcDbLine
 10
1598.650997
 20
434.796924
 30
0.0
 11
1602.150997
 21
434.796924
 31
0.0
  0
LINE
  5
9A
100
AcDbEntity
  8
2
  6
HIDDEN
 62
     7
100
AcDbLine
 10
1611.150997
 20
443.796924
 30
0.0
 11
1616.150997
 21
443.796924
 31
0.0
  0
LINE
  5
9B
100
AcDbEntity
  8
2
  6
CONTINUOUS
 62
     7
100
AcDbLine
 10
1616.150997
 20
434.796924
 30
0.0
 11
1619.650997
 21
434.796924
 31
0.0
  0
LINE
  5
9C
100
AcDbEntity
  8
2
  6
CONTINUOUS
 62
     7
100
AcDbLine
 10
1616.150997
 20
438.796924
 30
0.0
 11
1619.650997
 21
438.796924
 31
0.0
  0
LINE
  5
9D
100
AcDbEntity
  8
2
  6
CONTINUOUS
 62
     7
100
AcDbLine
 10
1598.650997
 20
429.796924
 30
0.0
 11
1602.150997
 21
429.796924
 31
0.0
  0
LINE
  5
9E
100
AcDbEntity
  8
2
  6
CONTINUOUS
 62
     7
100
AcDbLine
 10
1602.150997
 20
429.796924
 30
0.0
 11
1602.150997
 21
425.796924
 31
0.0
  0
LINE
  5
9F
100
AcDbEntity
  8
2
  6
HIDDEN
 62
     7
100
AcDbLine
 10
1602.150997
 20
434.796924
 30
0.0
 11
1602.150997
 21
429.796924
 31
0.0
  0
LINE
  5
A0
100
AcDbEntity
  8
2
  6
CONTINUOUS
 62
     7
100
AcDbLine
 10
1602.650997
 20
451.796924
 30
0.0
 11
1602.650997
 21
439.394924
 31
0.0
  0
LINE
  5
A1
100
AcDbEntity
  8
2
  6
CONTINUOUS
 62
     7
100
AcDbLine
 10
1600.650997
 20
414.796924
 30
0.0
 11
1601.150997
 21
417.632424
 31
0.0
  0
LINE
  5
A2
100
AcDbEntity
  8
2
  6
CONTINUOUS
 62
     7
100
AcDbLine
 10
1601.150997
 20
424.796924
 30
0.0
 11
1601.150997
 21
417.632424
 31
0.0
  0
LINE
  5
A3
100
AcDbEntity
  8
2
  6
CONTINUOUS
 62
     7
100
AcDbLine
 10
1617.150997
 20
424.796924
 30
0.0
 11
1617.150997
 21
417.632424
 31
0.0
  0
LINE
  5
A4
100
AcDbEntity
  8
2
  6
CONTINUOUS
 62
     7
100
AcDbLine
 10
1617.650997
 20
414.796924
 30
0.0
 11
1617.150997
 21
417.632424
 31
0.0
  0
LINE
  5
A5
100
AcDbEntity
  8
2
  6
CONTINUOUS
 62
     7
100
AcDbLine
 10
1611.150997
 20
447.296924
 30
0.0
 11
1616.150997
 21
447.296924
 31
0.0
  0
LINE
  5
A6
100
AcDbEntity
  8
2
  6
CONTINUOUS
 62
     7
100
AcDbLine
 10
1200.150997
 20
479.796924
 30
0.0
 11
1200.150997
 21
471.796924
 31
0.0
  0
LINE
  5
A7
100
AcDbEntity
  8
2
  6
CONTINUOUS
 62
     7
100
AcDbLine
 10
1200.150997
 20
471.796924
 30
0.0
 11
1209.150997
 21
471.796924
 31
0.0
  0
LINE
  5
A8
100
AcDbEntity
  8
2
  6
CONTINUOUS
 62
     7
100
AcDbLine
 10
1200.803997
 20
464.796924
 30
0.0
 11
1200.620497
 21
471.796924
 31
0.0
  0
LINE
  5
A9
100
AcDbEntity
  8
2
  6
CONTINUOUS
 62
     7
100
AcDbLine
 10
1201.658997
 20
464.796924
 30
0.0
 11
1201.516497
 21
470.245924
 31
0.0
  0
LINE
  5
AA
100
AcDbEntity
  8
2
  6
CONTINUOUS
 62
     7
100
AcDbLine
 10
1200.620497
 20
471.796924
 30
0.0
 11
1201.516497
 21
470.245924
 31
0.0
  0
LINE
  5
AB
100
AcDbEntity
  8
2
  6
CONTINUOUS
 62
     7
100
AcDbLine
 10
1200.661497
 20
470.245424
 30
0.0
 11
1209.150997
 21
470.245424
 31
0.0
  0
LINE
  5
AC
100
AcDbEntity
  8
2
  6
CONTINUOUS
 62
     7
100
AcDbLine
 10
1217.640497
 20
470.245424
 30
0.0
 11
1209.150997
 21
470.245424
 31
0.0
  0
LINE
  5
AD
100
AcDbEntity
  8
2
  6
CONTINUOUS
 62
     7
100
AcDbLine
 10
1218.150997
 20
479.796924
 30
0.0
 11
1218.150997
 21
471.796924
 31
0.0
  0
LINE
  5
AE
100
AcDbEntity
  8
2
  6
CONTINUOUS
 62
     7
100
AcDbLine
 10
1218.150997
 20
471.796924
 30
0.0
 11
1209.150997
 21
471.796924
 31
0.0
  0
LINE
  5
AF
100
AcDbEntity
  8
2
  6
CONTINUOUS
 62
     7
100
AcDbLine
 10
1217.497997
 20
464.796924
 30
0.0
 11
1217.681497
 21
471.796924
 31
0.0
  0
LINE
  5
B0
100
AcDbEntity
  8
2
  6
CONTINUOUS
 62
     7
100
AcDbLine
 10
1216.642997
 20
464.796924
 30
0.0
 11
1216.785497
 21
470.245424
 31
0.0
  0
LINE
  5
B1
100
AcDbEntity
  8
2
  6
CONTINUOUS
 62
     7
100
AcDbLine
 10
1217.681497
 20
471.796924
 30
0.0
 11
1216.785997
 21
470.245424
 31
0.0
  0
LINE
  5
B2
100
AcDbEntity
  8
2
  6
CENTER
 62
     7
100
AcDbLine
 10
1209.150997
 20
516.146924
 30
0.0
 11
1209.150997
 21
465.146924
 31
0.0
  0
LINE
  5
B3
100
AcDbEntity
  8
2
  6
CENTER
 62
     7
100
AcDbLine
 10
1192.524997
 20
436.796924
 30
0.0
 11
1222.869997
 21
436.796924
 31
0.0
  0
LINE
  5
B4
100
AcDbEntity
  8
2
  6
CENTER
 62
     7
100
AcDbLine
 10
1209.150997
 20
468.949424
 30
0.0
 11
1209.150997
 21
368.587924
 31
0.0
  0
LINE
  5
B5
100
AcDbEntity
  8
2
  6
CONTINUOUS
 62
     7
100
AcDbLine
 10
1198.650997
 20
464.796924
 30
0.0
 11
1219.650997
 21
464.796924
 31
0.0
  0
LINE
  5
B6
100
AcDbEntity
  8
2
  6
CONTINUOUS
 62
     7
100
AcDbLine
 10
1198.650997
 20
414.796924
 30
0.0
 11
1200.650997
 21
414.796924
 31
0.0
  0
LINE
  5
B7
100
AcDbEntity
  8
2
  6
CONTINUOUS
 62
     7
100
AcDbLine
 10
1198.650997
 20
464.796924
 30
0.0
 11
1198.650997
 21
414.796924
 31
0.0
  0
LINE
  5
B8
100
AcDbEntity
  8
2
  6
CONTINUOUS
 62
     7
100
AcDbLine
 10
1219.650997
 20
464.796924
 30
0.0
 11
1219.650997
 21
414.796924
 31
0.0
  0
LINE
  5
B9
100
AcDbEntity
  8
2
  6
CONTINUOUS
 62
     7
100
AcDbLine
 10
1217.650997
 20
414.796924
 30
0.0
 11
1219.650997
 21
414.796924
 31
0.0
  0
LINE
  5
BA
100
AcDbEntity
  8
2
  6
CONTINUOUS
 62
     7
100
AcDbLine
 10
1198.650997
 20
438.796924
 30
0.0
 11
1202.442997
 21
438.796924
 31
0.0
  0
LINE
  5
BB
100
AcDbEntity
  8
2
  6
CONTINUOUS
 62
     7
100
AcDbLine
 10
1202.650997
 20
451.796924
 30
0.0
 11
1215.650997
 21
451.796924
 31
0.0
  0
LINE
  5
BC
100
AcDbEntity
  8
2
  6
CONTINUOUS
 62
     7
100
AcDbLine
 10
1208.150997
 20
464.296924
 30
0.0
 11
1208.150997
 21
452.796924
 31
0.0
  0
LINE
  5
BD
100
AcDbEntity
  8
2
  6
CONTINUOUS
 62
     7
100
AcDbLine
 10
1210.150997
 20
464.296924
 30
0.0
 11
1210.150997
 21
452.796924
 31
0.0
  0
LINE
  5
BE
100
AcDbEntity
  8
2
  6
CONTINUOUS
 62
     7
100
AcDbLine
 10
1215.650997
 20
451.796924
 30
0.0
 11
1215.650997
 21
447.296924
 31
0.0
  0
LINE
  5
BF
100
AcDbEntity
  8
2
  6
CONTINUOUS
 62
     7
100
AcDbLine
 10
1208.150997
 20
452.796924
 30
0.0
 11
1210.150997
 21
452.796924
 31
0.0
  0
LINE
  5
C0
100
AcDbEntity
  8
2
  6
CONTINUOUS
 62
     7
100
AcDbLine
 10
1202.650997
 20
451.796924
 30
0.0
 11
1208.150997
 21
452.796924
 31
0.0
  0
LINE
  5
C1
100
AcDbEntity
  8
2
  6
CONTINUOUS
 62
     7
100
AcDbLine
 10
1210.150997
 20
452.796924
 30
0.0
 11
1215.650997
 21
451.796924
 31
0.0
  0
LINE
  5
C2
100
AcDbEntity
  8
2
  6
CONTINUOUS
 62
     7
100
AcDbLine
 10
1199.150997
 20
464.296924
 30
0.0
 11
1199.150997
 21
438.796924
 31
0.0
  0
LINE
  5
C3
100
AcDbEntity
  8
2
  6
CONTINUOUS
 62
     7
100
AcDbLine
 10
1199.150997
 20
429.796924
 30
0.0
 11
1199.150997
 21
415.296924
 31
0.0
  0
LINE
  5
C4
100
AcDbEntity
  8
2
  6
CONTINUOUS
 62
     7
100
AcDbLine
 10
1219.150997
 20
434.796924
 30
0.0
 11
1219.150997
 21
415.296924
 31
0.0
  0
LINE
  5
C5
100
AcDbEntity
  8
2
  6
CONTINUOUS
 62
     7
100
AcDbLine
 10
1219.150997
 20
464.296924
 30
0.0
 11
1219.150997
 21
438.796924
 31
0.0
  0
LINE
  5
C6
100
AcDbEntity
  8
2
  6
CONTINUOUS
 62
     7
100
AcDbLine
 10
1208.150997
 20
464.296924
 30
0.0
 11
1210.150997
 21
464.296924
 31
0.0
  0
LINE
  5
C7
100
AcDbEntity
  8
2
  6
CONTINUOUS
 62
     7
100
AcDbLine
 10
1198.650997
 20
415.296924
 30
0.0
 11
1199.150997
 21
415.296924
 31
0.0
  0
LINE
  5
C8
100
AcDbEntity
  8
2
  6
CONTINUOUS
 62
     7
100
AcDbLine
 10
1199.150997
 20
415.296924
 30
0.0
 11
1200.650997
 21
414.796924
 31
0.0
  0
LINE
  5
C9
100
AcDbEntity
  8
2
  6
CONTINUOUS
 62
     7
100
AcDbLine
 10
1198.650997
 20
464.296924
 30
0.0
 11
1199.150997
 21
464.296924
 31
0.0
  0
LINE
  5
CA
100
AcDbEntity
  8
2
  6
CONTINUOUS
 62
     7
100
AcDbLine
 10
1219.150997
 20
464.296924
 30
0.0
 11
1219.650997
 21
464.296924
 31
0.0
  0
LINE
  5
CB
100
AcDbEntity
  8
2
  6
CONTINUOUS
 62
     7
100
AcDbLine
 10
1219.150997
 20
415.296924
 30
0.0
 11
1219.650997
 21
415.296924
 31
0.0
  0
LINE
  5
CC
100
AcDbEntity
  8
2
  6
CONTINUOUS
 62
     7
100
AcDbLine
 10
1217.650997
 20
414.796924
 30
0.0
 11
1219.150997
 21
415.296924
 31
0.0
  0
LINE
  5
CD
100
AcDbEntity
  8
2
  6
CONTINUOUS
 62
     7
100
AcDbLine
 10
1211.150997
 20
447.296924
 30
0.0
 11
1211.150997
 21
443.796924
 31
0.0
  0
LINE
  5
CE
100
AcDbEntity
  8
2
  6
CONTINUOUS
 62
     7
100
AcDbLine
 10
1209.150997
 20
443.796924
 30
0.0
 11
1211.150997
 21
443.796924
 31
0.0
  0
LINE
  5
CF
100
AcDbEntity
  8
2
  6
CONTINUOUS
 62
     7
100
AcDbLine
 10
1209.150997
 20
374.796924
 30
0.0
 11
1215.150997
 21
378.260924
 31
0.0
  0
LINE
  5
D0
100
AcDbEntity
  8
2
  6
CONTINUOUS
 62
     7
100
AcDbLine
 10
1215.150997
 20
378.260924
 30
0.0
 11
1217.650997
 21
414.796924
 31
0.0
  0
LINE
  5
D1
100
AcDbEntity
  8
2
  6
CONTINUOUS
 62
     7
100
AcDbLine
 10
1203.150997
 20
378.260924
 30
0.0
 11
1200.650997
 21
414.796924
 31
0.0
  0
LINE
  5
D2
100
AcDbEntity
  8
2
  6
CONTINUOUS
 62
     7
100
AcDbLine
 10
1209.150997
 20
374.796924
 30
0.0
 11
1203.150997
 21
378.260924
 31
0.0
  0
LINE
  5
D3
100
AcDbEntity
  8
2
  6
CONTINUOUS
 62
     7
100
AcDbLine
 10
1203.013497
 20
419.796924
 30
0.0
 11
1209.150997
 21
419.796924
 31
0.0
  0
LINE
  5
D4
100
AcDbEntity
  8
2
  6
CONTINUOUS
 62
     7
100
AcDbLine
 10
1203.013497
 20
419.796924
 30
0.0
 11
1202.106997
 21
418.890424
 31
0.0
  0
LINE
  5
D5
100
AcDbEntity
  8
2
  6
CONTINUOUS
 62
     7
100
AcDbLine
 10
1215.288497
 20
419.796924
 30
0.0
 11
1209.150997
 21
419.796924
 31
0.0
  0
LINE
  5
D6
100
AcDbEntity
  8
2
  6
CONTINUOUS
 62
     7
100
AcDbLine
 10
1215.288497
 20
419.796924
 30
0.0
 11
1216.194997
 21
418.890424
 31
0.0
  0
LINE
  5
D7
100
AcDbEntity
  8
2
  6
CONTINUOUS
 62
     7
100
AcDbLine
 10
1207.150997
 20
438.296924
 30
0.0
 11
1207.150997
 21
435.296924
 31
0.0
  0
LINE
  5
D8
100
AcDbEntity
  8
2
  6
CONTINUOUS
 62
     7
100
AcDbLine
 10
1211.150997
 20
438.296924
 30
0.0
 11
1211.150997
 21
435.296924
 31
0.0
  0
LINE
  5
D9
100
AcDbEntity
  8
2
  6
CONTINUOUS
 62
     7
100
AcDbLine
 10
1207.130497
 20
440.296924
 30
0.0
 11
1205.109497
 21
436.796924
 31
0.0
  0
LINE
  5
DA
100
AcDbEntity
  8
2
  6
CONTINUOUS
 62
     7
100
AcDbLine
 10
1205.109497
 20
436.796924
 30
0.0
 11
1207.130497
 21
433.296924
 31
0.0
  0
LINE
  5
DB
100
AcDbEntity
  8
2
  6
CONTINUOUS
 62
     7
100
AcDbLine
 10
1211.171497
 20
433.296924
 30
0.0
 11
1207.130497
 21
433.296924
 31
0.0
  0
LINE
  5
DC
100
AcDbEntity
  8
2
  6
CONTINUOUS
 62
     7
100
AcDbLine
 10
1213.192497
 20
436.796924
 30
0.0
 11
1211.171997
 21
433.296924
 31
0.0
  0
LINE
  5
DD
100
AcDbEntity
  8
2
  6
CONTINUOUS
 62
     7
100
AcDbLine
 10
1211.171997
 20
440.296924
 30
0.0
 11
1213.192497
 21
436.796924
 31
0.0
  0
LINE
  5
DE
100
AcDbEntity
  8
2
  6
CONTINUOUS
 62
     7
100
AcDbLine
 10
1207.130497
 20
440.296924
 30
0.0
 11
1211.171497
 21
440.296924
 31
0.0
  0
LINE
  5
DF
100
AcDbEntity
  8
2
  6
CONTINUOUS
 62
     7
100
AcDbLine
 10
1202.150997
 20
425.796924
 30
0.0
 11
1216.150997
 21
425.796924
 31
0.0
  0
LINE
  5
E0
100
AcDbEntity
  8
2
  6
CONTINUOUS
 62
     7
100
AcDbLine
 10
1216.150997
 20
447.296924
 30
0.0
 11
1216.150997
 21
425.796924
 31
0.0
  0
LINE
  5
E1
100
AcDbEntity
  8
2
  6
CONTINUOUS
 62
     7
100
AcDbLine
 10
1202.150997
 20
436.796924
 30
0.0
 11
1202.150997
 21
434.796924
 31
0.0
  0
LINE
  5
E2
100
AcDbEntity
  8
2
  6
CONTINUOUS
 62
     7
100
AcDbLine
 10
1202.150997
 20
425.796924
 30
0.0
 11
1201.150997
 21
424.796924
 31
0.0
  0
LINE
  5
E3
100
AcDbEntity
  8
2
  6
CONTINUOUS
 62
     7
100
AcDbLine
 10
1216.150997
 20
425.796924
 30
0.0
 11
1217.150997
 21
424.796924
 31
0.0
  0
LINE
  5
E4
100
AcDbEntity
  8
2
  6
CONTINUOUS
 62
     7
100
AcDbLine
 10
1198.650997
 20
434.796924
 30
0.0
 11
1202.150997
 21
434.796924
 31
0.0
  0
LINE
  5
E5
100
AcDbEntity
  8
2
  6
HIDDEN
 62
     7
100
AcDbLine
 10
1211.150997
 20
443.796924
 30
0.0
 11
1216.150997
 21
443.796924
 31
0.0
  0
LINE
  5
E6
100
AcDbEntity
  8
2
  6
CONTINUOUS
 62
     7
100
AcDbLine
 10
1216.150997
 20
434.796924
 30
0.0
 11
1219.650997
 21
434.796924
 31
0.0
  0
LINE
  5
E7
100
AcDbEntity
  8
2
  6
CONTINUOUS
 62
     7
100
AcDbLine
 10
1216.150997
 20
438.796924
 30
0.0
 11
1219.650997
 21
438.796924
 31
0.0
  0
LINE
  5
E8
100
AcDbEntity
  8
2
  6
CONTINUOUS
 62
     7
100
AcDbLine
 10
1198.650997
 20
429.796924
 30
0.0
 11
1202.150997
 21
429.796924
 31
0.0
  0
LINE
  5
E9
100
AcDbEntity
  8
2
  6
CONTINUOUS
 62
     7
100
AcDbLine
 10
1202.150997
 20
429.796924
 30
0.0
 11
1202.150997
 21
425.796924
 31
0.0
  0
LINE
  5
EA
100
AcDbEntity
  8
2
  6
HIDDEN
 62
     7
100
AcDbLine
 10
1202.150997
 20
434.796924
 30
0.0
 11
1202.150997
 21
429.796924
 31
0.0
  0
LINE
  5
EB
100
AcDbEntity
  8
2
  6
CONTINUOUS
 62
     7
100
AcDbLine
 10
1202.650997
 20
451.796924
 30
0.0
 11
1202.650997
 21
439.394924
 31
0.0
  0
LINE
  5
EC
100
AcDbEntity
  8
2
  6
CONTINUOUS
 62
     7
100
AcDbLine
 10
1200.650997
 20
414.796924
 30
0.0
 11
1201.150997
 21
417.632424
 31
0.0
  0
LINE
  5
ED
100
AcDbEntity
  8
2
  6
CONTINUOUS
 62
     7
100
AcDbLine
 10
1201.150997
 20
424.796924
 30
0.0
 11
1201.150997
 21
417.632424
 31
0.0
  0
LINE
  5
EE
100
AcDbEntity
  8
2
  6
CONTINUOUS
 62
     7
100
AcDbLine
 10
1217.150997
 20
424.796924
 30
0.0
 11
1217.150997
 21
417.632424
 31
0.0
  0
LINE
  5
EF
100
AcDbEntity
  8
2
  6
CONTINUOUS
 62
     7
100
AcDbLine
 10
1217.650997
 20
414.796924
 30
0.0
 11
1217.150997
 21
417.632424
 31
0.0
  0
LINE
  5
F0
100
AcDbEntity
  8
2
  6
CONTINUOUS
 62
     7
100
AcDbLine
 10
1211.150997
 20
447.296924
 30
0.0
 11
1216.150997
 21
447.296924
 31
0.0
  0
LINE
  5
F1
100
AcDbEntity
  8
2
  6
CONTINUOUS
 62
     7
100
AcDbLine
 10
1200.150997
 20
476.796924
 30
0.0
 11
1197.150997
 21
479.796924
 31
0.0
  0
LINE
  5
F2
100
AcDbEntity
  8
2
  6
CONTINUOUS
 62
     7
100
AcDbLine
 10
1218.150997
 20
476.796924
 30
0.0
 11
1221.150997
 21
479.796924
 31
0.0
  0
LINE
  5
F3
100
AcDbEntity
  8
2
  6
CONTINUOUS
 62
     7
100
AcDbLine
 10
1218.150997
 20
479.796924
 30
0.0
 11
1600.150997
 21
479.796924
 31
0.0
  0
LINE
  5
F4
100
AcDbEntity
  8
2
  6
CONTINUOUS
 62
     7
100
AcDbLine
 10
1618.150997
 20
479.796924
 30
0.0
 11
1784.150997
 21
479.796924
 31
0.0
  0
LINE
  5
F5
100
AcDbEntity
  8
2
  6
CENTER
 62
     7
100
AcDbLine
 10
1409.150997
 20
562.486924
 30
0.0
 11
1409.150997
 21
487.796924
 31
0.0
  0
LINE
  5
F6
100
AcDbEntity
  8
2
  6
CONTINUOUS
 62
     7
100
AcDbLine
 10
908.055997
 20
718.146924
 30
0.0
 11
908.055997
 21
623.146924
 31
0.0
  0
LINE
  5
F7
100
AcDbEntity
  8
2
  6
CENTER
 62
     7
100
AcDbLine
 10
917.457497
 20
670.646924
 30
0.0
 11
608.055997
 21
670.646924
 31
0.0
  0
LINE
  5
F8
100
AcDbEntity
  8
2
  6
CONTINUOUS
 62
     7
100
AcDbLine
 10
908.055997
 20
645.146924
 30
0.0
 11
907.055997
 21
645.146924
 31
0.0
  0
LINE
  5
F9
100
AcDbEntity
  8
2
  6
CONTINUOUS
 62
     7
100
AcDbLine
 10
908.055997
 20
696.146924
 30
0.0
 11
907.055997
 21
696.146924
 31
0.0
  0
LINE
  5
FA
100
AcDbEntity
  8
2
  6
CONTINUOUS
 62
     7
100
AcDbLine
 10
905.055997
 20
718.146924
 30
0.0
 11
896.055997
 21
718.146924
 31
0.0
  0
LINE
  5
FB
100
AcDbEntity
  8
2
  6
CONTINUOUS
 62
     7
100
AcDbLine
 10
905.055997
 20
623.146924
 30
0.0
 11
896.055997
 21
623.146924
 31
0.0
  0
LINE
  5
FC
100
AcDbEntity
  8
2
  6
CONTINUOUS
 62
     7
100
AcDbLine
 10
890.055997
 20
688.496924
 30
0.0
 11
888.055997
 21
688.496924
 31
0.0
  0
LINE
  5
FD
100
AcDbEntity
  8
2
  6
CONTINUOUS
 62
     7
100
AcDbLine
 10
888.055997
 20
686.496924
 30
0.0
 11
883.055997
 21
681.496924
 31
0.0
  0
LINE
  5
FE
100
AcDbEntity
  8
2
  6
CONTINUOUS
 62
     7
100
AcDbLine
 10
894.055997
 20
625.146924
 30
0.0
 11
894.055997
 21
670.646924
 31
0.0
  0
LINE
  5
FF
100
AcDbEntity
  8
2
  6
CONTINUOUS
 62
     7
100
AcDbLine
 10
890.055997
 20
652.796924
 30
0.0
 11
888.055997
 21
652.796924
 31
0.0
  0
LINE
  5
100
100
AcDbEntity
  8
2
  6
CONTINUOUS
 62
     7
100
AcDbLine
 10
888.055997
 20
652.796924
 30
0.0
 11
888.055997
 21
670.646924
 31
0.0
  0
LINE
  5
101
100
AcDbEntity
  8
2
  6
CONTINUOUS
 62
     7
100
AcDbLine
 10
888.055997
 20
654.796924
 30
0.0
 11
883.055997
 21
659.796924
 31
0.0
  0
LINE
  5
102
100
AcDbEntity
  8
2
  6
CONTINUOUS
 62
     7
100
AcDbLine
 10
883.055997
 20
670.646924
 30
0.0
 11
883.055997
 21
659.796924
 31
0.0
  0
LINE
  5
103
100
AcDbEntity
  8
2
  6
CONTINUOUS
 62
     7
100
AcDbLine
 10
907.055997
 20
670.646924
 30
0.0
 11
907.055997
 21
625.146924
 31
0.0
  0
LINE
  5
104
100
AcDbEntity
  8
2
  6
CENTER
 62
     7
100
AcDbLine
 10
508.055997
 20
721.203424
 30
0.0
 11
508.055997
 21
666.204424
 31
0.0
  0
LINE
  5
105
100
AcDbEntity
  8
2
  6
CONTINUOUS
 62
     7
100
AcDbLine
 10
883.055997
 20
659.796924
 30
0.0
 11
717.055997
 21
659.796924
 31
0.0
  0
LINE
  5
106
100
AcDbEntity
  8
2
  6
CONTINUOUS
 62
     7
100
AcDbLine
 10
108.055997
 20
696.146924
 30
0.0
 11
108.055997
 21
645.146924
 31
0.0
  0
LINE
  5
107
100
AcDbEntity
  8
2
  6
CENTER
 62
     7
100
AcDbLine
 10
90.250497
 20
670.646924
 30
0.0
 11
608.055997
 21
670.646924
 31
0.0
  0
LINE
  5
108
100
AcDbEntity
  8
2
  6
CONTINUOUS
 62
     7
100
AcDbLine
 10
108.055997
 20
645.146924
 30
0.0
 11
109.055997
 21
645.146924
 31
0.0
  0
LINE
  5
109
100
AcDbEntity
  8
2
  6
CONTINUOUS
 62
     7
100
AcDbLine
 10
108.055997
 20
696.146924
 30
0.0
 11
109.055997
 21
696.146924
 31
0.0
  0
LINE
  5
10A
100
AcDbEntity
  8
2
  6
CONTINUOUS
 62
     7
100
AcDbLine
 10
111.055997
 20
718.146924
 30
0.0
 11
120.055997
 21
718.146924
 31
0.0
  0
LINE
  5
10B
100
AcDbEntity
  8
2
  6
CONTINUOUS
 62
     7
100
AcDbLine
 10
111.055997
 20
623.146924
 30
0.0
 11
120.055997
 21
623.146924
 31
0.0
  0
LINE
  5
10C
100
AcDbEntity
  8
2
  6
CONTINUOUS
 62
     7
100
AcDbLine
 10
126.055997
 20
688.496924
 30
0.0
 11
128.055997
 21
688.496924
 31
0.0
  0
LINE
  5
10D
100
AcDbEntity
  8
2
  6
CONTINUOUS
 62
     7
100
AcDbLine
 10
128.055997
 20
686.496924
 30
0.0
 11
133.055997
 21
681.496924
 31
0.0
  0
LINE
  5
10E
100
AcDbEntity
  8
2
  6
CONTINUOUS
 62
     7
100
AcDbLine
 10
122.055997
 20
625.146924
 30
0.0
 11
122.055997
 21
670.646924
 31
0.0
  0
LINE
  5
10F
100
AcDbEntity
  8
2
  6
CONTINUOUS
 62
     7
100
AcDbLine
 10
126.055997
 20
652.796924
 30
0.0
 11
128.055997
 21
652.796924
 31
0.0
  0
LINE
  5
110
100
AcDbEntity
  8
2
  6
CONTINUOUS
 62
     7
100
AcDbLine
 10
128.055997
 20
652.796924
 30
0.0
 11
128.055997
 21
670.646924
 31
0.0
  0
LINE
  5
111
100
AcDbEntity
  8
2
  6
CONTINUOUS
 62
     7
100
AcDbLine
 10
128.055997
 20
654.796924
 30
0.0
 11
133.055997
 21
659.796924
 31
0.0
  0
LINE
  5
112
100
AcDbEntity
  8
2
  6
CONTINUOUS
 62
     7
100
AcDbLine
 10
133.055997
 20
670.646924
 30
0.0
 11
133.055997
 21
659.796924
 31
0.0
  0
LINE
  5
113
100
AcDbEntity
  8
2
  6
CONTINUOUS
 62
     7
100
AcDbLine
 10
109.055997
 20
670.646924
 30
0.0
 11
109.055997
 21
625.146924
 31
0.0
  0
LINE
  5
114
100
AcDbEntity
  8
2
  6
CONTINUOUS
 62
     7
100
AcDbLine
 10
699.055997
 20
659.796924
 30
0.0
 11
508.055997
 21
659.796924
 31
0.0
  0
LINE
  5
115
100
AcDbEntity
  8
2
  6
CONTINUOUS
 62
     7
100
AcDbLine
 10
317.055997
 20
659.796924
 30
0.0
 11
317.055997
 21
651.796924
 31
0.0
  0
LINE
  5
116
100
AcDbEntity
  8
2
  6
CONTINUOUS
 62
     7
100
AcDbLine
 10
317.055997
 20
651.796924
 30
0.0
 11
308.055997
 21
651.796924
 31
0.0
  0
LINE
  5
117
100
AcDbEntity
  8
2
  6
CONTINUOUS
 62
     7
100
AcDbLine
 10
316.402997
 20
644.796924
 30
0.0
 11
316.586497
 21
651.796924
 31
0.0
  0
LINE
  5
118
100
AcDbEntity
  8
2
  6
CONTINUOUS
 62
     7
100
AcDbLine
 10
315.547997
 20
644.796924
 30
0.0
 11
315.690997
 21
650.245424
 31
0.0
  0
LINE
  5
119
100
AcDbEntity
  8
2
  6
CONTINUOUS
 62
     7
100
AcDbLine
 10
316.586497
 20
651.796924
 30
0.0
 11
315.690497
 21
650.245924
 31
0.0
  0
LINE
  5
11A
100
AcDbEntity
  8
2
  6
CONTINUOUS
 62
     7
100
AcDbLine
 10
316.545497
 20
650.245424
 30
0.0
 11
308.055997
 21
650.245424
 31
0.0
  0
LINE
  5
11B
100
AcDbEntity
  8
2
  6
CONTINUOUS
 62
     7
100
AcDbLine
 10
299.566497
 20
650.245424
 30
0.0
 11
308.055997
 21
650.245424
 31
0.0
  0
LINE
  5
11C
100
AcDbEntity
  8
2
  6
CONTINUOUS
 62
     7
100
AcDbLine
 10
299.055997
 20
659.796924
 30
0.0
 11
299.055997
 21
651.796924
 31
0.0
  0
LINE
  5
11D
100
AcDbEntity
  8
2
  6
CONTINUOUS
 62
     7
100
AcDbLine
 10
299.055997
 20
651.796924
 30
0.0
 11
308.055997
 21
651.796924
 31
0.0
  0
LINE
  5
11E
100
AcDbEntity
  8
2
  6
CONTINUOUS
 62
     7
100
AcDbLine
 10
299.708997
 20
644.796924
 30
0.0
 11
299.525497
 21
651.796924
 31
0.0
  0
LINE
  5
11F
100
AcDbEntity
  8
2
  6
CONTINUOUS
 62
     7
100
AcDbLine
 10
300.563997
 20
644.796924
 30
0.0
 11
300.421497
 21
650.245924
 31
0.0
  0
LINE
  5
120
100
AcDbEntity
  8
2
  6
CONTINUOUS
 62
     7
100
AcDbLine
 10
299.525497
 20
651.796924
 30
0.0
 11
300.421497
 21
650.245424
 31
0.0
  0
LINE
  5
121
100
AcDbEntity
  8
2
  6
CONTINUOUS
 62
     7
100
AcDbLine
 10
299.055997
 20
656.796924
 30
0.0
 11
296.055997
 21
659.796924
 31
0.0
  0
LINE
  5
122
100
AcDbEntity
  8
2
  6
CONTINUOUS
 62
     7
100
AcDbLine
 10
317.055997
 20
656.796924
 30
0.0
 11
320.055997
 21
659.796924
 31
0.0
  0
LINE
  5
123
100
AcDbEntity
  8
2
  6
CENTER
 62
     7
100
AcDbLine
 10
308.055997
 20
696.146924
 30
0.0
 11
308.055997
 21
645.146924
 31
0.0
  0
LINE
  5
124
100
AcDbEntity
  8
2
  6
CENTER
 62
     7
100
AcDbLine
 10
324.681997
 20
616.796924
 30
0.0
 11
294.336997
 21
616.796924
 31
0.0
  0
LINE
  5
125
100
AcDbEntity
  8
2
  6
CENTER
 62
     7
100
AcDbLine
 10
308.055997
 20
648.949424
 30
0.0
 11
308.055997
 21
548.587924
 31
0.0
  0
LINE
  5
126
100
AcDbEntity
  8
2
  6
CONTINUOUS
 62
     7
100
AcDbLine
 10
318.555997
 20
644.796924
 30
0.0
 11
297.555997
 21
644.796924
 31
0.0
  0
LINE
  5
127
100
AcDbEntity
  8
2
  6
CONTINUOUS
 62
     7
100
AcDbLine
 10
318.555997
 20
594.796924
 30
0.0
 11
316.555997
 21
594.796924
 31
0.0
  0
LINE
  5
128
100
AcDbEntity
  8
2
  6
CONTINUOUS
 62
     7
100
AcDbLine
 10
318.555997
 20
644.796924
 30
0.0
 11
318.555997
 21
594.796924
 31
0.0
  0
LINE
  5
129
100
AcDbEntity
  8
2
  6
CONTINUOUS
 62
     7
100
AcDbLine
 10
297.555997
 20
644.796924
 30
0.0
 11
297.555997
 21
594.796924
 31
0.0
  0
LINE
  5
12A
100
AcDbEntity
  8
2
  6
CONTINUOUS
 62
     7
100
AcDbLine
 10
299.555997
 20
594.796924
 30
0.0
 11
297.555997
 21
594.796924
 31
0.0
  0
LINE
  5
12B
100
AcDbEntity
  8
2
  6
CONTINUOUS
 62
     7
100
AcDbLine
 10
318.555997
 20
618.796924
 30
0.0
 11
315.055997
 21
618.796924
 31
0.0
  0
LINE
  5
12C
100
AcDbEntity
  8
2
  6
CONTINUOUS
 62
     7
100
AcDbLine
 10
314.555997
 20
631.796924
 30
0.0
 11
301.555997
 21
631.796924
 31
0.0
  0
LINE
  5
12D
100
AcDbEntity
  8
2
  6
CONTINUOUS
 62
     7
100
AcDbLine
 10
309.055997
 20
644.296924
 30
0.0
 11
309.055997
 21
632.796924
 31
0.0
  0
LINE
  5
12E
100
AcDbEntity
  8
2
  6
CONTINUOUS
 62
     7
100
AcDbLine
 10
307.055997
 20
644.296924
 30
0.0
 11
307.055997
 21
632.796924
 31
0.0
  0
LINE
  5
12F
100
AcDbEntity
  8
2
  6
CONTINUOUS
 62
     7
100
AcDbLine
 10
301.555997
 20
631.796924
 30
0.0
 11
301.555997
 21
619.394924
 31
0.0
  0
LINE
  5
130
100
AcDbEntity
  8
2
  6
CONTINUOUS
 62
     7
100
AcDbLine
 10
309.055997
 20
632.796924
 30
0.0
 11
307.055997
 21
632.796924
 31
0.0
  0
LINE
  5
131
100
AcDbEntity
  8
2
  6
CONTINUOUS
 62
     7
100
AcDbLine
 10
314.555997
 20
631.796924
 30
0.0
 11
309.055997
 21
632.796924
 31
0.0
  0
LINE
  5
132
100
AcDbEntity
  8
2
  6
CONTINUOUS
 62
     7
100
AcDbLine
 10
307.055997
 20
632.796924
 30
0.0
 11
301.555997
 21
631.796924
 31
0.0
  0
LINE
  5
133
100
AcDbEntity
  8
2
  6
CONTINUOUS
 62
     7
100
AcDbLine
 10
318.055997
 20
644.296924
 30
0.0
 11
318.055997
 21
618.796924
 31
0.0
  0
LINE
  5
134
100
AcDbEntity
  8
2
  6
CONTINUOUS
 62
     7
100
AcDbLine
 10
318.055997
 20
609.796924
 30
0.0
 11
318.055997
 21
595.296924
 31
0.0
  0
LINE
  5
135
100
AcDbEntity
  8
2
  6
CONTINUOUS
 62
     7
100
AcDbLine
 10
298.055997
 20
614.796924
 30
0.0
 11
298.055997
 21
595.296924
 31
0.0
  0
LINE
  5
136
100
AcDbEntity
  8
2
  6
CONTINUOUS
 62
     7
100
AcDbLine
 10
298.055997
 20
644.296924
 30
0.0
 11
298.055997
 21
618.796924
 31
0.0
  0
LINE
  5
137
100
AcDbEntity
  8
2
  6
CONTINUOUS
 62
     7
100
AcDbLine
 10
309.055997
 20
644.296924
 30
0.0
 11
307.055997
 21
644.296924
 31
0.0
  0
LINE
  5
138
100
AcDbEntity
  8
2
  6
CONTINUOUS
 62
     7
100
AcDbLine
 10
318.555997
 20
595.296924
 30
0.0
 11
318.055997
 21
595.296924
 31
0.0
  0
LINE
  5
139
100
AcDbEntity
  8
2
  6
CONTINUOUS
 62
     7
100
AcDbLine
 10
318.055997
 20
595.296924
 30
0.0
 11
316.555997
 21
594.796924
 31
0.0
  0
LINE
  5
13A
100
AcDbEntity
  8
2
  6
CONTINUOUS
 62
     7
100
AcDbLine
 10
318.555997
 20
644.296924
 30
0.0
 11
318.055997
 21
644.296924
 31
0.0
  0
LINE
  5
13B
100
AcDbEntity
  8
2
  6
CONTINUOUS
 62
     7
100
AcDbLine
 10
298.055997
 20
644.296924
 30
0.0
 11
297.555997
 21
644.296924
 31
0.0
  0
LINE
  5
13C
100
AcDbEntity
  8
2
  6
CONTINUOUS
 62
     7
100
AcDbLine
 10
298.055997
 20
595.296924
 30
0.0
 11
297.555997
 21
595.296924
 31
0.0
  0
LINE
  5
13D
100
AcDbEntity
  8
2
  6
CONTINUOUS
 62
     7
100
AcDbLine
 10
299.555997
 20
594.796924
 30
0.0
 11
298.055997
 21
595.296924
 31
0.0
  0
LINE
  5
13E
100
AcDbEntity
  8
2
  6
CONTINUOUS
 62
     7
100
AcDbLine
 10
308.055997
 20
554.796924
 30
0.0
 11
302.055997
 21
558.260924
 31
0.0
  0
LINE
  5
13F
100
AcDbEntity
  8
2
  6
CONTINUOUS
 62
     7
100
AcDbLine
 10
302.055997
 20
558.260924
 30
0.0
 11
299.555997
 21
594.796924
 31
0.0
  0
LINE
  5
140
100
AcDbEntity
  8
2
  6
CONTINUOUS
 62
     7
100
AcDbLine
 10
314.055997
 20
558.260924
 30
0.0
 11
316.555997
 21
594.796924
 31
0.0
  0
LINE
  5
141
100
AcDbEntity
  8
2
  6
CONTINUOUS
 62
     7
100
AcDbLine
 10
308.055997
 20
554.796924
 30
0.0
 11
314.055997
 21
558.260924
 31
0.0
  0
LINE
  5
142
100
AcDbEntity
  8
2
  6
CONTINUOUS
 62
     7
100
AcDbLine
 10
314.193497
 20
599.796924
 30
0.0
 11
308.055997
 21
599.796924
 31
0.0
  0
LINE
  5
143
100
AcDbEntity
  8
2
  6
CONTINUOUS
 62
     7
100
AcDbLine
 10
314.193497
 20
599.796924
 30
0.0
 11
315.099997
 21
598.890424
 31
0.0
  0
LINE
  5
144
100
AcDbEntity
  8
2
  6
CONTINUOUS
 62
     7
100
AcDbLine
 10
301.918497
 20
599.796924
 30
0.0
 11
308.055997
 21
599.796924
 31
0.0
  0
LINE
  5
145
100
AcDbEntity
  8
2
  6
CONTINUOUS
 62
     7
100
AcDbLine
 10
301.918497
 20
599.796924
 30
0.0
 11
301.011997
 21
598.890424
 31
0.0
  0
LINE
  5
146
100
AcDbEntity
  8
2
  6
CONTINUOUS
 62
     7
100
AcDbLine
 10
310.055997
 20
618.296924
 30
0.0
 11
310.055997
 21
615.296924
 31
0.0
  0
LINE
  5
147
100
AcDbEntity
  8
2
  6
CONTINUOUS
 62
     7
100
AcDbLine
 10
306.055997
 20
618.296924
 30
0.0
 11
306.055997
 21
615.296924
 31
0.0
  0
LINE
  5
148
100
AcDbEntity
  8
2
  6
CONTINUOUS
 62
     7
100
AcDbLine
 10
310.076497
 20
620.296924
 30
0.0
 11
312.097497
 21
616.796924
 31
0.0
  0
LINE
  5
149
100
AcDbEntity
  8
2
  6
CONTINUOUS
 62
     7
100
AcDbLine
 10
312.097497
 20
616.796924
 30
0.0
 11
310.076997
 21
613.296924
 31
0.0
  0
LINE
  5
14A
100
AcDbEntity
  8
2
  6
CONTINUOUS
 62
     7
100
AcDbLine
 10
306.035497
 20
613.296924
 30
0.0
 11
310.076997
 21
613.296924
 31
0.0
  0
LINE
  5
14B
100
AcDbEntity
  8
2
  6
CONTINUOUS
 62
     7
100
AcDbLine
 10
304.014497
 20
616.796924
 30
0.0
 11
306.035497
 21
613.296924
 31
0.0
  0
LINE
  5
14C
100
AcDbEntity
  8
2
  6
CONTINUOUS
 62
     7
100
AcDbLine
 10
306.035497
 20
620.296924
 30
0.0
 11
304.014497
 21
616.796924
 31
0.0
  0
LINE
  5
14D
100
AcDbEntity
  8
2
  6
CONTINUOUS
 62
     7
100
AcDbLine
 10
310.076997
 20
620.296924
 30
0.0
 11
306.035497
 21
620.296924
 31
0.0
  0
LINE
  5
14E
100
AcDbEntity
  8
2
  6
CONTINUOUS
 62
     7
100
AcDbLine
 10
315.055997
 20
605.796924
 30
0.0
 11
301.055997
 21
605.796924
 31
0.0
  0
LINE
  5
14F
100
AcDbEntity
  8
2
  6
CONTINUOUS
 62
     7
100
AcDbLine
 10
315.055997
 20
605.796924
 30
0.0
 11
316.055997
 21
604.796924
 31
0.0
  0
LINE
  5
150
100
AcDbEntity
  8
2
  6
CONTINUOUS
 62
     7
100
AcDbLine
 10
301.055997
 20
605.796924
 30
0.0
 11
300.055997
 21
604.796924
 31
0.0
  0
LINE
  5
151
100
AcDbEntity
  8
2
  6
CONTINUOUS
 62
     7
100
AcDbLine
 10
318.555997
 20
614.796924
 30
0.0
 11
315.055997
 21
614.796924
 31
0.0
  0
LINE
  5
152
100
AcDbEntity
  8
2
  6
CONTINUOUS
 62
     7
100
AcDbLine
 10
301.055997
 20
614.796924
 30
0.0
 11
297.555997
 21
614.796924
 31
0.0
  0
LINE
  5
153
100
AcDbEntity
  8
2
  6
CONTINUOUS
 62
     7
100
AcDbLine
 10
301.347997
 20
618.796924
 30
0.0
 11
297.555997
 21
618.796924
 31
0.0
  0
LINE
  5
154
100
AcDbEntity
  8
2
  6
CONTINUOUS
 62
     7
100
AcDbLine
 10
318.555997
 20
609.796924
 30
0.0
 11
315.055997
 21
609.796924
 31
0.0
  0
LINE
  5
155
100
AcDbEntity
  8
2
  6
CONTINUOUS
 62
     7
100
AcDbLine
 10
315.055997
 20
609.796924
 30
0.0
 11
315.055997
 21
605.796924
 31
0.0
  0
LINE
  5
156
100
AcDbEntity
  8
2
  6
CONTINUOUS
 62
     7
100
AcDbLine
 10
314.555997
 20
631.796924
 30
0.0
 11
314.555997
 21
627.296924
 31
0.0
  0
LINE
  5
157
100
AcDbEntity
  8
2
  6
CONTINUOUS
 62
     7
100
AcDbLine
 10
316.555997
 20
594.796924
 30
0.0
 11
316.055997
 21
597.632424
 31
0.0
  0
LINE
  5
158
100
AcDbEntity
  8
2
  6
CONTINUOUS
 62
     7
100
AcDbLine
 10
316.055997
 20
604.796924
 30
0.0
 11
316.055997
 21
597.632424
 31
0.0
  0
LINE
  5
159
100
AcDbEntity
  8
2
  6
CONTINUOUS
 62
     7
100
AcDbLine
 10
300.055997
 20
604.796924
 30
0.0
 11
300.055997
 21
597.632424
 31
0.0
  0
LINE
  5
15A
100
AcDbEntity
  8
2
  6
CONTINUOUS
 62
     7
100
AcDbLine
 10
299.555997
 20
594.796924
 30
0.0
 11
300.055997
 21
597.632424
 31
0.0
  0
LINE
  5
15B
100
AcDbEntity
  8
2
  6
CONTINUOUS
 62
     7
100
AcDbLine
 10
717.055997
 20
659.796924
 30
0.0
 11
717.055997
 21
651.796924
 31
0.0
  0
LINE
  5
15C
100
AcDbEntity
  8
2
  6
CONTINUOUS
 62
     7
100
AcDbLine
 10
717.055997
 20
651.796924
 30
0.0
 11
708.055997
 21
651.796924
 31
0.0
  0
LINE
  5
15D
100
AcDbEntity
  8
2
  6
CONTINUOUS
 62
     7
100
AcDbLine
 10
716.402997
 20
644.796924
 30
0.0
 11
716.586497
 21
651.796924
 31
0.0
  0
LINE
  5
15E
100
AcDbEntity
  8
2
  6
CONTINUOUS
 62
     7
100
AcDbLine
 10
715.547997
 20
644.796924
 30
0.0
 11
715.690997
 21
650.245424
 31
0.0
  0
LINE
  5
15F
100
AcDbEntity
  8
2
  6
CONTINUOUS
 62
     7
100
AcDbLine
 10
716.586497
 20
651.796924
 30
0.0
 11
715.690497
 21
650.245424
 31
0.0
  0
LINE
  5
160
100
AcDbEntity
  8
2
  6
CONTINUOUS
 62
     7
100
AcDbLine
 10
716.545497
 20
650.245424
 30
0.0
 11
708.055997
 21
650.245424
 31
0.0
  0
LINE
  5
161
100
AcDbEntity
  8
2
  6
CONTINUOUS
 62
     7
100
AcDbLine
 10
699.566497
 20
650.245424
 30
0.0
 11
708.055997
 21
650.245424
 31
0.0
  0
LINE
  5
162
100
AcDbEntity
  8
2
  6
CONTINUOUS
 62
     7
100
AcDbLine
 10
699.055997
 20
659.796924
 30
0.0
 11
699.055997
 21
651.796924
 31
0.0
  0
LINE
  5
163
100
AcDbEntity
  8
2
  6
CONTINUOUS
 62
     7
100
AcDbLine
 10
699.055997
 20
651.796924
 30
0.0
 11
708.055997
 21
651.796924
 31
0.0
  0
LINE
  5
164
100
AcDbEntity
  8
2
  6
CONTINUOUS
 62
     7
100
AcDbLine
 10
699.708997
 20
644.796924
 30
0.0
 11
699.525497
 21
651.796924
 31
0.0
  0
LINE
  5
165
100
AcDbEntity
  8
2
  6
CONTINUOUS
 62
     7
100
AcDbLine
 10
700.563997
 20
644.796924
 30
0.0
 11
700.421497
 21
650.245424
 31
0.0
  0
LINE
  5
166
100
AcDbEntity
  8
2
  6
CONTINUOUS
 62
     7
100
AcDbLine
 10
699.525497
 20
651.796924
 30
0.0
 11
700.421497
 21
650.245424
 31
0.0
  0
LINE
  5
167
100
AcDbEntity
  8
2
  6
CENTER
 62
     7
100
AcDbLine
 10
708.055997
 20
696.146924
 30
0.0
 11
708.055997
 21
645.146924
 31
0.0
  0
LINE
  5
168
100
AcDbEntity
  8
2
  6
CENTER
 62
     7
100
AcDbLine
 10
724.681997
 20
616.796924
 30
0.0
 11
694.336997
 21
616.796924
 31
0.0
  0
LINE
  5
169
100
AcDbEntity
  8
2
  6
CENTER
 62
     7
100
AcDbLine
 10
708.055997
 20
648.949424
 30
0.0
 11
708.055997
 21
548.587924
 31
0.0
  0
LINE
  5
16A
100
AcDbEntity
  8
2
  6
CONTINUOUS
 62
     7
100
AcDbLine
 10
718.555997
 20
644.796924
 30
0.0
 11
697.555997
 21
644.796924
 31
0.0
  0
LINE
  5
16B
100
AcDbEntity
  8
2
  6
CONTINUOUS
 62
     7
100
AcDbLine
 10
718.555997
 20
594.796924
 30
0.0
 11
716.555997
 21
594.796924
 31
0.0
  0
LINE
  5
16C
100
AcDbEntity
  8
2
  6
CONTINUOUS
 62
     7
100
AcDbLine
 10
718.555997
 20
644.796924
 30
0.0
 11
718.555997
 21
594.796924
 31
0.0
  0
LINE
  5
16D
100
AcDbEntity
  8
2
  6
CONTINUOUS
 62
     7
100
AcDbLine
 10
697.555997
 20
644.796924
 30
0.0
 11
697.555997
 21
594.796924
 31
0.0
  0
LINE
  5
16E
100
AcDbEntity
  8
2
  6
CONTINUOUS
 62
     7
100
AcDbLine
 10
699.555997
 20
594.796924
 30
0.0
 11
697.555997
 21
594.796924
 31
0.0
  0
LINE
  5
16F
100
AcDbEntity
  8
2
  6
CONTINUOUS
 62
     7
100
AcDbLine
 10
718.555997
 20
618.796924
 30
0.0
 11
715.055997
 21
618.796924
 31
0.0
  0
LINE
  5
170
100
AcDbEntity
  8
2
  6
CONTINUOUS
 62
     7
100
AcDbLine
 10
714.555997
 20
631.796924
 30
0.0
 11
701.555997
 21
631.796924
 31
0.0
  0
LINE
  5
171
100
AcDbEntity
  8
2
  6
CONTINUOUS
 62
     7
100
AcDbLine
 10
709.055997
 20
644.296924
 30
0.0
 11
709.055997
 21
632.796924
 31
0.0
  0
LINE
  5
172
100
AcDbEntity
  8
2
  6
CONTINUOUS
 62
     7
100
AcDbLine
 10
707.055997
 20
644.296924
 30
0.0
 11
707.055997
 21
632.796924
 31
0.0
  0
LINE
  5
173
100
AcDbEntity
  8
2
  6
CONTINUOUS
 62
     7
100
AcDbLine
 10
701.555997
 20
631.796924
 30
0.0
 11
701.555997
 21
619.394924
 31
0.0
  0
LINE
  5
174
100
AcDbEntity
  8
2
  6
CONTINUOUS
 62
     7
100
AcDbLine
 10
709.055997
 20
632.796924
 30
0.0
 11
707.055997
 21
632.796924
 31
0.0
  0
LINE
  5
175
100
AcDbEntity
  8
2
  6
CONTINUOUS
 62
     7
100
AcDbLine
 10
714.555997
 20
631.796924
 30
0.0
 11
709.055997
 21
632.796924
 31
0.0
  0
LINE
  5
176
100
AcDbEntity
  8
2
  6
CONTINUOUS
 62
     7
100
AcDbLine
 10
707.055997
 20
632.796924
 30
0.0
 11
701.555997
 21
631.796924
 31
0.0
  0
LINE
  5
177
100
AcDbEntity
  8
2
  6
CONTINUOUS
 62
     7
100
AcDbLine
 10
718.055997
 20
644.296924
 30
0.0
 11
718.055997
 21
618.796924
 31
0.0
  0
LINE
  5
178
100
AcDbEntity
  8
2
  6
CONTINUOUS
 62
     7
100
AcDbLine
 10
718.055997
 20
609.796924
 30
0.0
 11
718.055997
 21
595.296924
 31
0.0
  0
LINE
  5
179
100
AcDbEntity
  8
2
  6
CONTINUOUS
 62
     7
100
AcDbLine
 10
698.055997
 20
614.796924
 30
0.0
 11
698.055997
 21
595.296924
 31
0.0
  0
LINE
  5
17A
100
AcDbEntity
  8
2
  6
CONTINUOUS
 62
     7
100
AcDbLine
 10
698.055997
 20
644.296924
 30
0.0
 11
698.055997
 21
618.796924
 31
0.0
  0
LINE
  5
17B
100
AcDbEntity
  8
2
  6
CONTINUOUS
 62
     7
100
AcDbLine
 10
709.055997
 20
644.296924
 30
0.0
 11
707.055997
 21
644.296924
 31
0.0
  0
LINE
  5
17C
100
AcDbEntity
  8
2
  6
CONTINUOUS
 62
     7
100
AcDbLine
 10
718.555997
 20
595.296924
 30
0.0
 11
718.055997
 21
595.296924
 31
0.0
  0
LINE
  5
17D
100
AcDbEntity
  8
2
  6
CONTINUOUS
 62
     7
100
AcDbLine
 10
718.055997
 20
595.296924
 30
0.0
 11
716.555997
 21
594.796924
 31
0.0
  0
LINE
  5
17E
100
AcDbEntity
  8
2
  6
CONTINUOUS
 62
     7
100
AcDbLine
 10
718.555997
 20
644.296924
 30
0.0
 11
718.055997
 21
644.296924
 31
0.0
  0
LINE
  5
17F
100
AcDbEntity
  8
2
  6
CONTINUOUS
 62
     7
100
AcDbLine
 10
698.055997
 20
644.296924
 30
0.0
 11
697.555997
 21
644.296924
 31
0.0
  0
LINE
  5
180
100
AcDbEntity
  8
2
  6
CONTINUOUS
 62
     7
100
AcDbLine
 10
698.055997
 20
595.296924
 30
0.0
 11
697.555997
 21
595.296924
 31
0.0
  0
LINE
  5
181
100
AcDbEntity
  8
2
  6
CONTINUOUS
 62
     7
100
AcDbLine
 10
699.555997
 20
594.796924
 30
0.0
 11
698.055997
 21
595.296924
 31
0.0
  0
LINE
  5
182
100
AcDbEntity
  8
2
  6
CONTINUOUS
 62
     7
100
AcDbLine
 10
708.055997
 20
554.796924
 30
0.0
 11
702.055997
 21
558.260924
 31
0.0
  0
LINE
  5
183
100
AcDbEntity
  8
2
  6
CONTINUOUS
 62
     7
100
AcDbLine
 10
702.055997
 20
558.260924
 30
0.0
 11
699.555997
 21
594.796924
 31
0.0
  0
LINE
  5
184
100
AcDbEntity
  8
2
  6
CONTINUOUS
 62
     7
100
AcDbLine
 10
714.055997
 20
558.260924
 30
0.0
 11
716.555997
 21
594.796924
 31
0.0
  0
LINE
  5
185
100
AcDbEntity
  8
2
  6
CONTINUOUS
 62
     7
100
AcDbLine
 10
708.055997
 20
554.796924
 30
0.0
 11
714.055997
 21
558.260924
 31
0.0
  0
LINE
  5
186
100
AcDbEntity
  8
2
  6
CONTINUOUS
 62
     7
100
AcDbLine
 10
714.193497
 20
599.796924
 30
0.0
 11
708.055997
 21
599.796924
 31
0.0
  0
LINE
  5
187
100
AcDbEntity
  8
2
  6
CONTINUOUS
 62
     7
100
AcDbLine
 10
714.193497
 20
599.796924
 30
0.0
 11
715.099997
 21
598.890424
 31
0.0
  0
LINE
  5
188
100
AcDbEntity
  8
2
  6
CONTINUOUS
 62
     7
100
AcDbLine
 10
701.918497
 20
599.796924
 30
0.0
 11
708.055997
 21
599.796924
 31
0.0
  0
LINE
  5
189
100
AcDbEntity
  8
2
  6
CONTINUOUS
 62
     7
100
AcDbLine
 10
701.918497
 20
599.796924
 30
0.0
 11
701.011997
 21
598.890424
 31
0.0
  0
LINE
  5
18A
100
AcDbEntity
  8
2
  6
CONTINUOUS
 62
     7
100
AcDbLine
 10
710.055997
 20
618.296924
 30
0.0
 11
710.055997
 21
615.296924
 31
0.0
  0
LINE
  5
18B
100
AcDbEntity
  8
2
  6
CONTINUOUS
 62
     7
100
AcDbLine
 10
706.055997
 20
618.296924
 30
0.0
 11
706.055997
 21
615.296924
 31
0.0
  0
LINE
  5
18C
100
AcDbEntity
  8
2
  6
CONTINUOUS
 62
     7
100
AcDbLine
 10
710.076997
 20
620.296924
 30
0.0
 11
712.097497
 21
616.796924
 31
0.0
  0
LINE
  5
18D
100
AcDbEntity
  8
2
  6
CONTINUOUS
 62
     7
100
AcDbLine
 10
712.097497
 20
616.796924
 30
0.0
 11
710.076997
 21
613.296924
 31
0.0
  0
LINE
  5
18E
100
AcDbEntity
  8
2
  6
CONTINUOUS
 62
     7
100
AcDbLine
 10
706.035497
 20
613.296924
 30
0.0
 11
710.076997
 21
613.296924
 31
0.0
  0
LINE
  5
18F
100
AcDbEntity
  8
2
  6
CONTINUOUS
 62
     7
100
AcDbLine
 10
704.014497
 20
616.796924
 30
0.0
 11
706.035497
 21
613.296924
 31
0.0
  0
LINE
  5
190
100
AcDbEntity
  8
2
  6
CONTINUOUS
 62
     7
100
AcDbLine
 10
706.035497
 20
620.296924
 30
0.0
 11
704.014497
 21
616.796924
 31
0.0
  0
LINE
  5
191
100
AcDbEntity
  8
2
  6
CONTINUOUS
 62
     7
100
AcDbLine
 10
710.076997
 20
620.296924
 30
0.0
 11
706.035497
 21
620.296924
 31
0.0
  0
LINE
  5
192
100
AcDbEntity
  8
2
  6
CONTINUOUS
 62
     7
100
AcDbLine
 10
715.055997
 20
605.796924
 30
0.0
 11
701.055997
 21
605.796924
 31
0.0
  0
LINE
  5
193
100
AcDbEntity
  8
2
  6
CONTINUOUS
 62
     7
100
AcDbLine
 10
715.055997
 20
605.796924
 30
0.0
 11
716.055997
 21
604.796924
 31
0.0
  0
LINE
  5
194
100
AcDbEntity
  8
2
  6
CONTINUOUS
 62
     7
100
AcDbLine
 10
701.055997
 20
605.796924
 30
0.0
 11
700.055997
 21
604.796924
 31
0.0
  0
LINE
  5
195
100
AcDbEntity
  8
2
  6
CONTINUOUS
 62
     7
100
AcDbLine
 10
718.555997
 20
614.796924
 30
0.0
 11
715.055997
 21
614.796924
 31
0.0
  0
LINE
  5
196
100
AcDbEntity
  8
2
  6
CONTINUOUS
 62
     7
100
AcDbLine
 10
701.055997
 20
614.796924
 30
0.0
 11
697.555997
 21
614.796924
 31
0.0
  0
LINE
  5
197
100
AcDbEntity
  8
2
  6
CONTINUOUS
 62
     7
100
AcDbLine
 10
701.347997
 20
618.796924
 30
0.0
 11
697.555997
 21
618.796924
 31
0.0
  0
LINE
  5
198
100
AcDbEntity
  8
2
  6
CONTINUOUS
 62
     7
100
AcDbLine
 10
718.555997
 20
609.796924
 30
0.0
 11
715.055997
 21
609.796924
 31
0.0
  0
LINE
  5
199
100
AcDbEntity
  8
2
  6
CONTINUOUS
 62
     7
100
AcDbLine
 10
714.555997
 20
631.796924
 30
0.0
 11
714.555997
 21
627.296924
 31
0.0
  0
LINE
  5
19A
100
AcDbEntity
  8
2
  6
CONTINUOUS
 62
     7
100
AcDbLine
 10
716.555997
 20
594.796924
 30
0.0
 11
716.055997
 21
597.632424
 31
0.0
  0
LINE
  5
19B
100
AcDbEntity
  8
2
  6
CONTINUOUS
 62
     7
100
AcDbLine
 10
716.055997
 20
604.796924
 30
0.0
 11
716.055997
 21
597.632424
 31
0.0
  0
LINE
  5
19C
100
AcDbEntity
  8
2
  6
CONTINUOUS
 62
     7
100
AcDbLine
 10
700.055997
 20
604.796924
 30
0.0
 11
700.055997
 21
597.632424
 31
0.0
  0
LINE
  5
19D
100
AcDbEntity
  8
2
  6
CONTINUOUS
 62
     7
100
AcDbLine
 10
699.555997
 20
594.796924
 30
0.0
 11
700.055997
 21
597.632424
 31
0.0
  0
LINE
  5
19E
100
AcDbEntity
  8
2
  6
CONTINUOUS
 62
     7
100
AcDbLine
 10
717.055997
 20
656.796924
 30
0.0
 11
720.055997
 21
659.796924
 31
0.0
  0
LINE
  5
19F
100
AcDbEntity
  8
2
  6
CONTINUOUS
 62
     7
100
AcDbLine
 10
699.055997
 20
656.796924
 30
0.0
 11
696.055997
 21
659.796924
 31
0.0
  0
LINE
  5
1A0
100
AcDbEntity
  8
2
  6
CONTINUOUS
 62
     7
100
AcDbLine
 10
508.055997
 20
659.796924
 30
0.0
 11
317.055997
 21
659.796924
 31
0.0
  0
LINE
  5
1A1
100
AcDbEntity
  8
2
  6
CONTINUOUS
 62
     7
100
AcDbLine
 10
299.055997
 20
659.796924
 30
0.0
 11
133.055997
 21
659.796924
 31
0.0
  0
LINE
  5
1A2
100
AcDbEntity
  8
2
  6
CONTINUOUS
 62
     7
100
AcDbLine
 10
187.555997
 20
659.796924
 30
0.0
 11
187.555997
 21
509.796924
 31
0.0
  0
LINE
  5
1A3
100
AcDbEntity
  8
2
  6
CONTINUOUS
 62
     7
100
AcDbLine
 10
219.555997
 20
659.796924
 30
0.0
 11
219.555997
 21
509.796924
 31
0.0
  0
LINE
  5
1A4
100
AcDbEntity
  8
2
  6
CONTINUOUS
 62
     7
100
AcDbLine
 10
187.555997
 20
509.796924
 30
0.0
 11
219.555997
 21
509.796924
 31
0.0
  0
LINE
  5
1A5
100
AcDbEntity
  8
2
  6
CONTINUOUS
 62
     7
100
AcDbLine
 10
187.555997
 20
656.796924
 30
0.0
 11
219.555997
 21
656.796924
 31
0.0
  0
LINE
  5
1A6
100
AcDbEntity
  8
2
  6
CONTINUOUS
 62
     7
100
AcDbLine
 10
189.555997
 20
654.796924
 30
0.0
 11
189.555997
 21
553.614924
 31
0.0
  0
LINE
  5
1A7
100
AcDbEntity
  8
2
  6
CONTINUOUS
 62
     7
100
AcDbLine
 10
189.555997
 20
553.614924
 30
0.0
 11
198.555997
 21
561.796924
 31
0.0
  0
LINE
  5
1A8
100
AcDbEntity
  8
2
  6
CONTINUOUS
 62
     7
100
AcDbLine
 10
189.555997
 20
569.978924
 30
0.0
 11
198.555997
 21
561.796924
 31
0.0
  0
LINE
  5
1A9
100
AcDbEntity
  8
2
  6
CONTINUOUS
 62
     7
100
AcDbLine
 10
187.555997
 20
553.614924
 30
0.0
 11
189.555997
 21
553.614924
 31
0.0
  0
LINE
  5
1AA
100
AcDbEntity
  8
2
  6
CONTINUOUS
 62
     7
100
AcDbLine
 10
189.555997
 20
654.796924
 30
0.0
 11
215.805997
 21
654.796924
 31
0.0
  0
LINE
  5
1AB
100
AcDbEntity
  8
2
  6
CONTINUOUS
 62
     7
100
AcDbLine
 10
189.555997
 20
654.796924
 30
0.0
 11
187.555997
 21
656.796924
 31
0.0
  0
LINE
  5
1AC
100
AcDbEntity
  8
2
  6
CONTINUOUS
 62
     7
100
AcDbLine
 10
205.555997
 20
643.796924
 30
0.0
 11
210.555997
 21
643.796924
 31
0.0
  0
LINE
  5
1AD
100
AcDbEntity
  8
2
  6
CONTINUOUS
 62
     7
100
AcDbLine
 10
215.805997
 20
656.796924
 30
0.0
 11
215.805997
 21
654.796924
 31
0.0
  0
LINE
  5
1AE
100
AcDbEntity
  8
2
  6
CONTINUOUS
 62
     7
100
AcDbLine
 10
200.305997
 20
656.796924
 30
0.0
 11
200.305997
 21
654.796924
 31
0.0
  0
LINE
  5
1AF
100
AcDbEntity
  8
2
  6
CONTINUOUS
 62
     7
100
AcDbLine
 10
205.055997
 20
649.796924
 30
0.0
 11
205.055997
 21
644.296924
 31
0.0
  0
LINE
  5
1B0
100
AcDbEntity
  8
2
  6
CONTINUOUS
 62
     7
100
AcDbLine
 10
211.055997
 20
649.796924
 30
0.0
 11
211.055997
 21
644.296924
 31
0.0
  0
LINE
  5
1B1
100
AcDbEntity
  8
2
  6
CONTINUOUS
 62
     7
100
AcDbLine
 10
203.055997
 20
654.796924
 30
0.0
 11
203.055997
 21
650.296924
 31
0.0
  0
LINE
  5
1B2
100
AcDbEntity
  8
2
  6
CONTINUOUS
 62
     7
100
AcDbLine
 10
203.555997
 20
649.796924
 30
0.0
 11
208.055997
 21
649.796924
 31
0.0
  0
LINE
  5
1B3
100
AcDbEntity
  8
2
  6
CONTINUOUS
 62
     7
100
AcDbLine
 10
205.555997
 20
654.796924
 30
0.0
 11
205.555997
 21
650.296924
 31
0.0
  0
LINE
  5
1B4
100
AcDbEntity
  8
2
  6
CONTINUOUS
 62
     7
100
AcDbLine
 10
203.055997
 20
650.296924
 30
0.0
 11
203.555997
 21
649.796924
 31
0.0
  0
LINE
  5
1B5
100
AcDbEntity
  8
2
  6
CONTINUOUS
 62
     7
100
AcDbLine
 10
213.055997
 20
654.796924
 30
0.0
 11
213.055997
 21
650.296924
 31
0.0
  0
LINE
  5
1B6
100
AcDbEntity
  8
2
  6
CONTINUOUS
 62
     7
100
AcDbLine
 10
213.055997
 20
650.296924
 30
0.0
 11
212.555997
 21
649.796924
 31
0.0
  0
LINE
  5
1B7
100
AcDbEntity
  8
2
  6
CONTINUOUS
 62
     7
100
AcDbLine
 10
212.555997
 20
649.796924
 30
0.0
 11
208.055997
 21
649.796924
 31
0.0
  0
LINE
  5
1B8
100
AcDbEntity
  8
2
  6
CONTINUOUS
 62
     7
100
AcDbLine
 10
210.555997
 20
654.796924
 30
0.0
 11
210.555997
 21
650.296924
 31
0.0
  0
LINE
  5
1B9
100
AcDbEntity
  8
2
  6
CONTINUOUS
 62
     7
100
AcDbLine
 10
205.055997
 20
644.296924
 30
0.0
 11
205.555997
 21
643.796924
 31
0.0
  0
LINE
  5
1BA
100
AcDbEntity
  8
2
  6
CONTINUOUS
 62
     7
100
AcDbLine
 10
210.555997
 20
643.796924
 30
0.0
 11
211.055997
 21
644.296924
 31
0.0
  0
LINE
  5
1BB
100
AcDbEntity
  8
2
  6
CENTER
 62
     7
100
AcDbLine
 10
208.055997
 20
688.296424
 30
0.0
 11
208.055997
 21
633.076424
 31
0.0
  0
LINE
  5
1BC
100
AcDbEntity
  8
2
  6
CONTINUOUS
 62
     7
100
AcDbLine
 10
737.555997
 20
659.796924
 30
0.0
 11
737.555997
 21
509.796924
 31
0.0
  0
LINE
  5
1BD
100
AcDbEntity
  8
2
  6
CONTINUOUS
 62
     7
100
AcDbLine
 10
769.555997
 20
659.796924
 30
0.0
 11
769.555997
 21
509.796924
 31
0.0
  0
LINE
  5
1BE
100
AcDbEntity
  8
2
  6
CONTINUOUS
 62
     7
100
AcDbLine
 10
737.555997
 20
509.796924
 30
0.0
 11
769.555997
 21
509.796924
 31
0.0
  0
LINE
  5
1BF
100
AcDbEntity
  8
2
  6
CONTINUOUS
 62
     7
100
AcDbLine
 10
737.555997
 20
656.796924
 30
0.0
 11
769.555997
 21
656.796924
 31
0.0
  0
LINE
  5
1C0
100
AcDbEntity
  8
2
  6
CONTINUOUS
 62
     7
100
AcDbLine
 10
739.555997
 20
654.796924
 30
0.0
 11
739.555997
 21
553.614924
 31
0.0
  0
LINE
  5
1C1
100
AcDbEntity
  8
2
  6
CONTINUOUS
 62
     7
100
AcDbLine
 10
739.555997
 20
553.614924
 30
0.0
 11
748.555997
 21
561.796924
 31
0.0
  0
LINE
  5
1C2
100
AcDbEntity
  8
2
  6
CONTINUOUS
 62
     7
100
AcDbLine
 10
739.555997
 20
569.978924
 30
0.0
 11
748.555997
 21
561.796924
 31
0.0
  0
LINE
  5
1C3
100
AcDbEntity
  8
2
  6
CONTINUOUS
 62
     7
100
AcDbLine
 10
737.555997
 20
553.614924
 30
0.0
 11
739.555997
 21
553.614924
 31
0.0
  0
LINE
  5
1C4
100
AcDbEntity
  8
2
  6
CONTINUOUS
 62
     7
100
AcDbLine
 10
739.555997
 20
654.796924
 30
0.0
 11
765.805997
 21
654.796924
 31
0.0
  0
LINE
  5
1C5
100
AcDbEntity
  8
2
  6
CONTINUOUS
 62
     7
100
AcDbLine
 10
739.555997
 20
654.796924
 30
0.0
 11
737.555997
 21
656.796924
 31
0.0
  0
LINE
  5
1C6
100
AcDbEntity
  8
2
  6
CONTINUOUS
 62
     7
100
AcDbLine
 10
755.555997
 20
643.796924
 30
0.0
 11
760.555997
 21
643.796924
 31
0.0
  0
LINE
  5
1C7
100
AcDbEntity
  8
2
  6
CONTINUOUS
 62
     7
100
AcDbLine
 10
765.805997
 20
656.796924
 30
0.0
 11
765.805997
 21
654.796924
 31
0.0
  0
LINE
  5
1C8
100
AcDbEntity
  8
2
  6
CONTINUOUS
 62
     7
100
AcDbLine
 10
750.305997
 20
656.796924
 30
0.0
 11
750.305997
 21
654.796924
 31
0.0
  0
LINE
  5
1C9
100
AcDbEntity
  8
2
  6
CONTINUOUS
 62
     7
100
AcDbLine
 10
755.055997
 20
649.796924
 30
0.0
 11
755.055997
 21
644.296924
 31
0.0
  0
LINE
  5
1CA
100
AcDbEntity
  8
2
  6
CONTINUOUS
 62
     7
100
AcDbLine
 10
761.055997
 20
649.796924
 30
0.0
 11
761.055997
 21
644.296924
 31
0.0
  0
LINE
  5
1CB
100
AcDbEntity
  8
2
  6
CONTINUOUS
 62
     7
100
AcDbLine
 10
753.055997
 20
654.796924
 30
0.0
 11
753.055997
 21
650.296924
 31
0.0
  0
LINE
  5
1CC
100
AcDbEntity
  8
2
  6
CONTINUOUS
 62
     7
100
AcDbLine
 10
753.555997
 20
649.796924
 30
0.0
 11
758.055997
 21
649.796924
 31
0.0
  0
LINE
  5
1CD
100
AcDbEntity
  8
2
  6
CONTINUOUS
 62
     7
100
AcDbLine
 10
755.555997
 20
654.796924
 30
0.0
 11
755.555997
 21
650.296924
 31
0.0
  0
LINE
  5
1CE
100
AcDbEntity
  8
2
  6
CONTINUOUS
 62
     7
100
AcDbLine
 10
753.055997
 20
650.296924
 30
0.0
 11
753.555997
 21
649.796924
 31
0.0
  0
LINE
  5
1CF
100
AcDbEntity
  8
2
  6
CONTINUOUS
 62
     7
100
AcDbLine
 10
763.055997
 20
654.796924
 30
0.0
 11
763.055997
 21
650.296924
 31
0.0
  0
LINE
  5
1D0
100
AcDbEntity
  8
2
  6
CONTINUOUS
 62
     7
100
AcDbLine
 10
763.055997
 20
650.296924
 30
0.0
 11
762.555997
 21
649.796924
 31
0.0
  0
LINE
  5
1D1
100
AcDbEntity
  8
2
  6
CONTINUOUS
 62
     7
100
AcDbLine
 10
762.555997
 20
649.796924
 30
0.0
 11
758.055997
 21
649.796924
 31
0.0
  0
LINE
  5
1D2
100
AcDbEntity
  8
2
  6
CONTINUOUS
 62
     7
100
AcDbLine
 10
760.555997
 20
654.796924
 30
0.0
 11
760.555997
 21
650.296924
 31
0.0
  0
LINE
  5
1D3
100
AcDbEntity
  8
2
  6
CONTINUOUS
 62
     7
100
AcDbLine
 10
755.055997
 20
644.296924
 30
0.0
 11
755.555997
 21
643.796924
 31
0.0
  0
LINE
  5
1D4
100
AcDbEntity
  8
2
  6
CONTINUOUS
 62
     7
100
AcDbLine
 10
760.555997
 20
643.796924
 30
0.0
 11
761.055997
 21
644.296924
 31
0.0
  0
LINE
  5
1D5
100
AcDbEntity
  8
2
  6
CENTER
 62
     7
100
AcDbLine
 10
758.055997
 20
688.296424
 30
0.0
 11
758.055997
 21
633.076424
 31
0.0
  0
LINE
  5
1D6
100
AcDbEntity
  8
2
  6
CONTINUOUS
 62
     7
100
AcDbLine
 10
1138.650997
 20
479.796924
 30
0.0
 11
1138.650997
 21
329.796924
 31
0.0
  0
LINE
  5
1D7
100
AcDbEntity
  8
2
  6
CONTINUOUS
 62
     7
100
AcDbLine
 10
1170.650997
 20
479.796924
 30
0.0
 11
1170.650997
 21
329.796924
 31
0.0
  0
LINE
  5
1D8
100
AcDbEntity
  8
2
  6
CONTINUOUS
 62
     7
100
AcDbLine
 10
1138.650997
 20
329.796924
 30
0.0
 11
1170.650997
 21
329.796924
 31
0.0
  0
LINE
  5
1D9
100
AcDbEntity
  8
2
  6
CONTINUOUS
 62
     7
100
AcDbLine
 10
1138.650997
 20
476.796924
 30
0.0
 11
1170.650997
 21
476.796924
 31
0.0
  0
LINE
  5
1DA
100
AcDbEntity
  8
2
  6
CONTINUOUS
 62
     7
100
AcDbLine
 10
1140.650997
 20
474.796924
 30
0.0
 11
1140.650997
 21
373.614924
 31
0.0
  0
LINE
  5
1DB
100
AcDbEntity
  8
2
  6
CONTINUOUS
 62
     7
100
AcDbLine
 10
1140.650997
 20
373.614924
 30
0.0
 11
1149.650997
 21
381.796924
 31
0.0
  0
LINE
  5
1DC
100
AcDbEntity
  8
2
  6
CONTINUOUS
 62
     7
100
AcDbLine
 10
1140.650997
 20
389.978924
 30
0.0
 11
1149.650997
 21
381.796924
 31
0.0
  0
LINE
  5
1DD
100
AcDbEntity
  8
2
  6
CONTINUOUS
 62
     7
100
AcDbLine
 10
1138.650997
 20
373.614924
 30
0.0
 11
1140.650997
 21
373.614924
 31
0.0
  0
LINE
  5
1DE
100
AcDbEntity
  8
2
  6
CONTINUOUS
 62
     7
100
AcDbLine
 10
1140.650997
 20
474.796924
 30
0.0
 11
1166.900997
 21
474.796924
 31
0.0
  0
LINE
  5
1DF
100
AcDbEntity
  8
2
  6
CONTINUOUS
 62
     7
100
AcDbLine
 10
1140.650997
 20
474.796924
 30
0.0
 11
1138.650997
 21
476.796924
 31
0.0
  0
LINE
  5
1E0
100
AcDbEntity
  8
2
  6
CONTINUOUS
 62
     7
100
AcDbLine
 10
1156.650997
 20
463.796924
 30
0.0
 11
1161.650997
 21
463.796924
 31
0.0
  0
LINE
  5
1E1
100
AcDbEntity
  8
2
  6
CONTINUOUS
 62
     7
100
AcDbLine
 10
1166.900997
 20
476.796924
 30
0.0
 11
1166.900997
 21
474.796924
 31
0.0
  0
LINE
  5
1E2
100
AcDbEntity
  8
2
  6
CONTINUOUS
 62
     7
100
AcDbLine
 10
1151.400997
 20
476.796924
 30
0.0
 11
1151.400997
 21
474.796924
 31
0.0
  0
LINE
  5
1E3
100
AcDbEntity
  8
2
  6
CONTINUOUS
 62
     7
100
AcDbLine
 10
1156.150997
 20
469.796924
 30
0.0
 11
1156.150997
 21
464.296924
 31
0.0
  0
LINE
  5
1E4
100
AcDbEntity
  8
2
  6
CONTINUOUS
 62
     7
100
AcDbLine
 10
1162.150997
 20
469.796924
 30
0.0
 11
1162.150997
 21
464.296924
 31
0.0
  0
LINE
  5
1E5
100
AcDbEntity
  8
2
  6
CONTINUOUS
 62
     7
100
AcDbLine
 10
1154.150997
 20
474.796924
 30
0.0
 11
1154.150997
 21
470.296924
 31
0.0
  0
LINE
  5
1E6
100
AcDbEntity
  8
2
  6
CONTINUOUS
 62
     7
100
AcDbLine
 10
1154.650997
 20
469.796924
 30
0.0
 11
1159.150997
 21
469.796924
 31
0.0
  0
LINE
  5
1E7
100
AcDbEntity
  8
2
  6
CONTINUOUS
 62
     7
100
AcDbLine
 10
1156.650997
 20
474.796924
 30
0.0
 11
1156.650997
 21
470.296924
 31
0.0
  0
LINE
  5
1E8
100
AcDbEntity
  8
2
  6
CONTINUOUS
 62
     7
100
AcDbLine
 10
1154.150997
 20
470.296924
 30
0.0
 11
1154.650997
 21
469.796924
 31
0.0
  0
LINE
  5
1E9
100
AcDbEntity
  8
2
  6
CONTINUOUS
 62
     7
100
AcDbLine
 10
1164.150997
 20
474.796924
 30
0.0
 11
1164.150997
 21
470.296924
 31
0.0
  0
LINE
  5
1EA
100
AcDbEntity
  8
2
  6
CONTINUOUS
 62
     7
100
AcDbLine
 10
1164.150997
 20
470.296924
 30
0.0
 11
1163.650997
 21
469.796924
 31
0.0
  0
LINE
  5
1EB
100
AcDbEntity
  8
2
  6
CONTINUOUS
 62
     7
100
AcDbLine
 10
1163.650997
 20
469.796924
 30
0.0
 11
1159.150997
 21
469.796924
 31
0.0
  0
LINE
  5
1EC
100
AcDbEntity
  8
2
  6
CONTINUOUS
 62
     7
100
AcDbLine
 10
1161.650997
 20
474.796924
 30
0.0
 11
1161.650997
 21
470.296924
 31
0.0
  0
LINE
  5
1ED
100
AcDbEntity
  8
2
  6
CONTINUOUS
 62
     7
100
AcDbLine
 10
1156.150997
 20
464.296924
 30
0.0
 11
1156.650997
 21
463.796924
 31
0.0
  0
LINE
  5
1EE
100
AcDbEntity
  8
2
  6
CONTINUOUS
 62
     7
100
AcDbLine
 10
1161.650997
 20
463.796924
 30
0.0
 11
1162.150997
 21
464.296924
 31
0.0
  0
LINE
  5
1EF
100
AcDbEntity
  8
2
  6
CENTER
 62
     7
100
AcDbLine
 10
1159.150997
 20
508.296424
 30
0.0
 11
1159.150997
 21
453.076424
 31
0.0
  0
LINE
  5
1F0
100
AcDbEntity
  8
2
  6
CONTINUOUS
 62
     7
100
AcDbLine
 10
1688.650997
 20
479.796924
 30
0.0
 11
1688.650997
 21
329.796924
 31
0.0
  0
LINE
  5
1F1
100
AcDbEntity
  8
2
  6
CONTINUOUS
 62
     7
100
AcDbLine
 10
1720.650997
 20
479.796924
 30
0.0
 11
1720.650997
 21
329.796924
 31
0.0
  0
LINE
  5
1F2
100
AcDbEntity
  8
2
  6
CONTINUOUS
 62
     7
100
AcDbLine
 10
1688.650997
 20
329.796924
 30
0.0
 11
1720.650997
 21
329.796924
 31
0.0
  0
LINE
  5
1F3
100
AcDbEntity
  8
2
  6
CONTINUOUS
 62
     7
100
AcDbLine
 10
1688.650997
 20
476.796924
 30
0.0
 11
1720.650997
 21
476.796924
 31
0.0
  0
LINE
  5
1F4
100
AcDbEntity
  8
2
  6
CONTINUOUS
 62
     7
100
AcDbLine
 10
1690.650997
 20
474.796924
 30
0.0
 11
1690.650997
 21
373.614924
 31
0.0
  0
LINE
  5
1F5
100
AcDbEntity
  8
2
  6
CONTINUOUS
 62
     7
100
AcDbLine
 10
1690.650997
 20
373.614924
 30
0.0
 11
1699.650997
 21
381.796924
 31
0.0
  0
LINE
  5
1F6
100
AcDbEntity
  8
2
  6
CONTINUOUS
 62
     7
100
AcDbLine
 10
1690.650997
 20
389.978424
 30
0.0
 11
1699.650997
 21
381.796924
 31
0.0
  0
LINE
  5
1F7
100
AcDbEntity
  8
2
  6
CONTINUOUS
 62
     7
100
AcDbLine
 10
1688.650997
 20
373.614924
 30
0.0
 11
1690.650997
 21
373.614924
 31
0.0
  0
LINE
  5
1F8
100
AcDbEntity
  8
2
  6
CONTINUOUS
 62
     7
100
AcDbLine
 10
1690.650997
 20
474.796924
 30
0.0
 11
1716.900997
 21
474.796924
 31
0.0
  0
LINE
  5
1F9
100
AcDbEntity
  8
2
  6
CONTINUOUS
 62
     7
100
AcDbLine
 10
1690.650997
 20
474.796924
 30
0.0
 11
1688.650997
 21
476.796924
 31
0.0
  0
LINE
  5
1FA
100
AcDbEntity
  8
2
  6
CONTINUOUS
 62
     7
100
AcDbLine
 10
1706.650997
 20
463.796924
 30
0.0
 11
1711.650997
 21
463.796924
 31
0.0
  0
LINE
  5
1FB
100
AcDbEntity
  8
2
  6
CONTINUOUS
 62
     7
100
AcDbLine
 10
1716.900997
 20
476.796924
 30
0.0
 11
1716.900997
 21
474.796924
 31
0.0
  0
LINE
  5
1FC
100
AcDbEntity
  8
2
  6
CONTINUOUS
 62
     7
100
AcDbLine
 10
1701.400997
 20
476.796924
 30
0.0
 11
1701.400997
 21
474.796924
 31
0.0
  0
LINE
  5
1FD
100
AcDbEntity
  8
2
  6
CONTINUOUS
 62
     7
100
AcDbLine
 10
1706.150997
 20
469.796924
 30
0.0
 11
1706.150997
 21
464.296924
 31
0.0
  0
LINE
  5
1FE
100
AcDbEntity
  8
2
  6
CONTINUOUS
 62
     7
100
AcDbLine
 10
1712.150997
 20
469.796924
 30
0.0
 11
1712.150997
 21
464.296924
 31
0.0
  0
LINE
  5
1FF
100
AcDbEntity
  8
2
  6
CONTINUOUS
 62
     7
100
AcDbLine
 10
1704.150997
 20
474.796924
 30
0.0
 11
1704.150997
 21
470.296924
 31
0.0
  0
LINE
  5
200
100
AcDbEntity
  8
2
  6
CONTINUOUS
 62
     7
100
AcDbLine
 10
1704.650997
 20
469.796924
 30
0.0
 11
1709.150997
 21
469.796924
 31
0.0
  0
LINE
  5
201
100
AcDbEntity
  8
2
  6
CONTINUOUS
 62
     7
100
AcDbLine
 10
1706.650997
 20
474.796924
 30
0.0
 11
1706.650997
 21
470.296924
 31
0.0
  0
LINE
  5
202
100
AcDbEntity
  8
2
  6
CONTINUOUS
 62
     7
100
AcDbLine
 10
1704.150997
 20
470.296924
 30
0.0
 11
1704.650997
 21
469.796924
 31
0.0
  0
LINE
  5
203
100
AcDbEntity
  8
2
  6
CONTINUOUS
 62
     7
100
AcDbLine
 10
1714.150997
 20
474.796924
 30
0.0
 11
1714.150997
 21
470.296924
 31
0.0
  0
LINE
  5
204
100
AcDbEntity
  8
2
  6
CONTINUOUS
 62
     7
100
AcDbLine
 10
1714.150997
 20
470.296924
 30
0.0
 11
1713.650997
 21
469.796924
 31
0.0
  0
LINE
  5
205
100
AcDbEntity
  8
2
  6
CONTINUOUS
 62
     7
100
AcDbLine
 10
1713.650997
 20
469.796924
 30
0.0
 11
1709.150997
 21
469.796924
 31
0.0
  0
LINE
  5
206
100
AcDbEntity
  8
2
  6
CONTINUOUS
 62
     7
100
AcDbLine
 10
1711.650997
 20
474.796924
 30
0.0
 11
1711.650997
 21
470.296924
 31
0.0
  0
LINE
  5
207
100
AcDbEntity
  8
2
  6
CONTINUOUS
 62
     7
100
AcDbLine
 10
1706.150997
 20
464.296924
 30
0.0
 11
1706.650997
 21
463.796924
 31
0.0
  0
LINE
  5
208
100
AcDbEntity
  8
2
  6
CONTINUOUS
 62
     7
100
AcDbLine
 10
1711.650997
 20
463.796924
 30
0.0
 11
1712.150997
 21
464.296924
 31
0.0
  0
LINE
  5
209
100
AcDbEntity
  8
2
  6
CENTER
 62
     7
100
AcDbLine
 10
1709.150997
 20
508.296424
 30
0.0
 11
1709.150997
 21
453.076424
 31
0.0
  0
LINE
  5
20A
100
AcDbEntity
  8
2
  6
CENTER
 62
     7
100
AcDbLine
 10
1824.761497
 20
490.646924
 30
0.0
 11
997.621497
 21
490.646924
 31
0.0
  0
LINE
  5
20B
100
AcDbEntity
  8
2
  6
CENTER
 62
     7
100
AcDbLine
 10
981.900497
 20
549.210424
 30
0.0
 11
981.900497
 21
431.064424
 31
0.0
  0
LINE
  5
20C
100
AcDbEntity
  8
2
  6
CENTER
 62
     7
100
AcDbLine
 10
992.934497
 20
490.646924
 30
0.0
 11
921.639497
 21
490.646924
 31
0.0
  0
LINE
  5
20D
100
AcDbEntity
  8
2
  6
CENTER
 62
     7
100
AcDbLine
 10
991.236497
 20
481.310424
 30
0.0
 11
939.123497
 21
533.423924
 31
0.0
  0
LINE
  5
20E
100
AcDbEntity
  8
2
  6
CENTER
 62
     7
100
AcDbLine
 10
939.802497
 20
448.548924
 30
0.0
 11
992.594997
 21
501.341424
 31
0.0
  0
LINE
  5
20F
100
AcDbEntity
  8
2
  6
CONTINUOUS
 62
     7
100
AcDbLine
 10
701.055997
 20
609.796924
 30
0.0
 11
701.055997
 21
605.796924
 31
0.0
  0
LINE
  5
210
100
AcDbEntity
  8
2
  6
HIDDEN
 62
     7
100
AcDbLine
 10
701.055997
 20
614.796924
 30
0.0
 11
701.055997
 21
609.796924
 31
0.0
  0
LINE
  5
211
100
AcDbEntity
  8
2
  6
CONTINUOUS
 62
     7
100
AcDbLine
 10
701.055997
 20
616.796924
 30
0.0
 11
701.055997
 21
614.796924
 31
0.0
  0
LINE
  5
212
100
AcDbEntity
  8
2
  6
CONTINUOUS
 62
     7
100
AcDbLine
 10
708.055997
 20
623.796924
 30
0.0
 11
710.055997
 21
623.796924
 31
0.0
  0
LINE
  5
213
100
AcDbEntity
  8
2
  6
CONTINUOUS
 62
     7
100
AcDbLine
 10
710.055997
 20
627.296924
 30
0.0
 11
710.055997
 21
623.796924
 31
0.0
  0
LINE
  5
214
100
AcDbEntity
  8
2
  6
CONTINUOUS
 62
     7
100
AcDbLine
 10
710.055997
 20
627.296924
 30
0.0
 11
715.055997
 21
627.296924
 31
0.0
  0
LINE
  5
215
100
AcDbEntity
  8
2
  6
HIDDEN
 62
     7
100
AcDbLine
 10
710.055997
 20
623.796924
 30
0.0
 11
715.055997
 21
623.796924
 31
0.0
  0
LINE
  5
216
100
AcDbEntity
  8
2
  6
CONTINUOUS
 62
     7
100
AcDbLine
 10
715.055997
 20
627.296924
 30
0.0
 11
715.055997
 21
605.796924
 31
0.0
  0
LINE
  5
217
100
AcDbEntity
  8
2
  6
CONTINUOUS
 62
     7
100
AcDbLine
 10
301.055997
 20
609.796924
 30
0.0
 11
301.055997
 21
605.796924
 31
0.0
  0
LINE
  5
218
100
AcDbEntity
  8
2
  6
HIDDEN
 62
     7
100
AcDbLine
 10
301.055997
 20
614.796924
 30
0.0
 11
301.055997
 21
609.796924
 31
0.0
  0
LINE
  5
219
100
AcDbEntity
  8
2
  6
CONTINUOUS
 62
     7
100
AcDbLine
 10
301.055997
 20
616.796924
 30
0.0
 11
301.055997
 21
614.796924
 31
0.0
  0
LINE
  5
21A
100
AcDbEntity
  8
2
  6
CONTINUOUS
 62
     7
100
AcDbLine
 10
308.055997
 20
623.796924
 30
0.0
 11
310.055997
 21
623.796924
 31
0.0
  0
LINE
  5
21B
100
AcDbEntity
  8
2
  6
CONTINUOUS
 62
     7
100
AcDbLine
 10
310.055997
 20
627.296924
 30
0.0
 11
310.055997
 21
623.796924
 31
0.0
  0
LINE
  5
21C
100
AcDbEntity
  8
2
  6
CONTINUOUS
 62
     7
100
AcDbLine
 10
310.055997
 20
627.296924
 30
0.0
 11
315.055997
 21
627.296924
 31
0.0
  0
LINE
  5
21D
100
AcDbEntity
  8
2
  6
HIDDEN
 62
     7
100
AcDbLine
 10
310.055997
 20
623.796924
 30
0.0
 11
315.055997
 21
623.796924
 31
0.0
  0
LINE
  5
21E
100
AcDbEntity
  8
2
  6
CONTINUOUS
 62
     7
100
AcDbLine
 10
315.055997
 20
627.296924
 30
0.0
 11
315.055997
 21
605.796924
 31
0.0
  0
LINE
  5
21F
100
AcDbEntity
  8
2
  6
CONTINUOUS
 62
     7
100
AcDbLine
 10
206.055997
 20
626.296924
 30
0.0
 11
206.055997
 21
625.008924
 31
0.0
  0
LINE
  5
220
100
AcDbEntity
  8
2
  6
CONTINUOUS
 62
     7
100
AcDbLine
 10
201.055997
 20
523.584924
 30
0.0
 11
201.055997
 21
522.296924
 31
0.0
  0
LINE
  5
221
100
AcDbEntity
  8
2
  6
CONTINUOUS
 62
     7
100
AcDbLine
 10
206.055997
 20
523.584924
 30
0.0
 11
206.055997
 21
522.296924
 31
0.0
  0
LINE
  5
222
100
AcDbEntity
  8
2
  6
CONTINUOUS
 62
     7
100
AcDbLine
 10
201.055997
 20
626.296924
 30
0.0
 11
201.055997
 21
625.008924
 31
0.0
  0
LINE
  5
223
100
AcDbEntity
  8
2
  6
CENTER
 62
     7
100
AcDbLine
 10
187.293997
 20
614.296924
 30
0.0
 11
217.062997
 21
614.296924
 31
0.0
  0
LINE
  5
224
100
AcDbEntity
  8
2
  6
CENTER
 62
     7
100
AcDbLine
 10
203.555997
 20
628.308924
 30
0.0
 11
203.555997
 21
599.532424
 31
0.0
  0
LINE
  5
225
100
AcDbEntity
  8
2
  6
CONTINUOUS
 62
     7
100
AcDbLine
 10
196.555997
 20
618.338424
 30
0.0
 11
196.555997
 21
610.255424
 31
0.0
  0
LINE
  5
226
100
AcDbEntity
  8
2
  6
CONTINUOUS
 62
     7
100
AcDbLine
 10
210.555997
 20
610.255424
 30
0.0
 11
203.555997
 21
606.213924
 31
0.0
  0
LINE
  5
227
100
AcDbEntity
  8
2
  6
CONTINUOUS
 62
     7
100
AcDbLine
 10
203.555997
 20
542.379924
 30
0.0
 11
196.555997
 21
538.338424
 31
0.0
  0
LINE
  5
228
100
AcDbEntity
  8
2
  6
CENTER
 62
     7
100
AcDbLine
 10
187.293997
 20
534.296924
 30
0.0
 11
217.062497
 21
534.296924
 31
0.0
  0
LINE
  5
229
100
AcDbEntity
  8
2
  6
CENTER
 62
     7
100
AcDbLine
 10
203.555997
 20
548.308924
 30
0.0
 11
203.555997
 21
519.532424
 31
0.0
  0
LINE
  5
22A
100
AcDbEntity
  8
2
  6
CONTINUOUS
 62
     7
100
AcDbLine
 10
196.555997
 20
538.338424
 30
0.0
 11
196.555997
 21
530.255424
 31
0.0
  0
LINE
  5
22B
100
AcDbEntity
  8
2
  6
CONTINUOUS
 62
     7
100
AcDbLine
 10
203.555997
 20
526.213924
 30
0.0
 11
196.555997
 21
530.255424
 31
0.0
  0
LINE
  5
22C
100
AcDbEntity
  8
2
  6
CONTINUOUS
 62
     7
100
AcDbLine
 10
203.555997
 20
606.213924
 30
0.0
 11
196.555997
 21
610.255424
 31
0.0
  0
LINE
  5
22D
100
AcDbEntity
  8
2
  6
CONTINUOUS
 62
     7
100
AcDbLine
 10
203.555997
 20
622.379924
 30
0.0
 11
196.555997
 21
618.338424
 31
0.0
  0
LINE
  5
22E
100
AcDbEntity
  8
2
  6
CONTINUOUS
 62
     7
100
AcDbLine
 10
210.555997
 20
618.338424
 30
0.0
 11
210.555997
 21
610.255424
 31
0.0
  0
LINE
  5
22F
100
AcDbEntity
  8
2
  6
CONTINUOUS
 62
     7
100
AcDbLine
 10
203.555997
 20
622.379924
 30
0.0
 11
210.555997
 21
618.338424
 31
0.0
  0
LINE
  5
230
100
AcDbEntity
  8
2
  6
CONTINUOUS
 62
     7
100
AcDbLine
 10
210.555997
 20
530.255424
 30
0.0
 11
203.555997
 21
526.213924
 31
0.0
  0
LINE
  5
231
100
AcDbEntity
  8
2
  6
CONTINUOUS
 62
     7
100
AcDbLine
 10
203.555997
 20
542.379924
 30
0.0
 11
210.555997
 21
538.338424
 31
0.0
  0
LINE
  5
232
100
AcDbEntity
  8
2
  6
CONTINUOUS
 62
     7
100
AcDbLine
 10
210.555997
 20
538.338424
 30
0.0
 11
210.555997
 21
530.255424
 31
0.0
  0
LINE
  5
233
100
AcDbEntity
  8
2
  6
CONTINUOUS
 62
     7
100
AcDbLine
 10
756.055997
 20
626.296924
 30
0.0
 11
756.055997
 21
625.008924
 31
0.0
  0
LINE
  5
234
100
AcDbEntity
  8
2
  6
CONTINUOUS
 62
     7
100
AcDbLine
 10
751.055997
 20
523.584924
 30
0.0
 11
751.055997
 21
522.296924
 31
0.0
  0
LINE
  5
235
100
AcDbEntity
  8
2
  6
CONTINUOUS
 62
     7
100
AcDbLine
 10
756.055997
 20
523.584924
 30
0.0
 11
756.055997
 21
522.296924
 31
0.0
  0
LINE
  5
236
100
AcDbEntity
  8
2
  6
CONTINUOUS
 62
     7
100
AcDbLine
 10
751.055997
 20
626.296924
 30
0.0
 11
751.055997
 21
625.008924
 31
0.0
  0
LINE
  5
237
100
AcDbEntity
  8
2
  6
CENTER
 62
     7
100
AcDbLine
 10
737.293997
 20
614.296924
 30
0.0
 11
767.062997
 21
614.296924
 31
0.0
  0
LINE
  5
238
100
AcDbEntity
  8
2
  6
CENTER
 62
     7
100
AcDbLine
 10
753.555997
 20
628.308924
 30
0.0
 11
753.555997
 21
599.532424
 31
0.0
  0
LINE
  5
239
100
AcDbEntity
  8
2
  6
CONTINUOUS
 62
     7
100
AcDbLine
 10
746.555997
 20
618.338424
 30
0.0
 11
746.555997
 21
610.255424
 31
0.0
  0
LINE
  5
23A
100
AcDbEntity
  8
2
  6
CONTINUOUS
 62
     7
100
AcDbLine
 10
760.555997
 20
610.255424
 30
0.0
 11
753.555997
 21
606.213924
 31
0.0
  0
LINE
  5
23B
100
AcDbEntity
  8
2
  6
CONTINUOUS
 62
     7
100
AcDbLine
 10
753.555997
 20
542.379924
 30
0.0
 11
746.555997
 21
538.338424
 31
0.0
  0
LINE
  5
23C
100
AcDbEntity
  8
2
  6
CENTER
 62
     7
100
AcDbLine
 10
737.293997
 20
534.296924
 30
0.0
 11
767.062497
 21
534.296924
 31
0.0
  0
LINE
  5
23D
100
AcDbEntity
  8
2
  6
CENTER
 62
     7
100
AcDbLine
 10
753.555997
 20
548.308924
 30
0.0
 11
753.555997
 21
519.532424
 31
0.0
  0
LINE
  5
23E
100
AcDbEntity
  8
2
  6
CONTINUOUS
 62
     7
100
AcDbLine
 10
746.555997
 20
538.338424
 30
0.0
 11
746.555997
 21
530.255424
 31
0.0
  0
LINE
  5
23F
100
AcDbEntity
  8
2
  6
CONTINUOUS
 62
     7
100
AcDbLine
 10
753.555997
 20
526.213924
 30
0.0
 11
746.555997
 21
530.255424
 31
0.0
  0
LINE
  5
240
100
AcDbEntity
  8
2
  6
CONTINUOUS
 62
     7
100
AcDbLine
 10
753.555997
 20
606.213924
 30
0.0
 11
746.555997
 21
610.255424
 31
0.0
  0
LINE
  5
241
100
AcDbEntity
  8
2
  6
CONTINUOUS
 62
     7
100
AcDbLine
 10
753.555997
 20
622.379924
 30
0.0
 11
746.555997
 21
618.338424
 31
0.0
  0
LINE
  5
242
100
AcDbEntity
  8
2
  6
CONTINUOUS
 62
     7
100
AcDbLine
 10
760.555997
 20
618.338424
 30
0.0
 11
760.555997
 21
610.255424
 31
0.0
  0
LINE
  5
243
100
AcDbEntity
  8
2
  6
CONTINUOUS
 62
     7
100
AcDbLine
 10
753.555997
 20
622.379924
 30
0.0
 11
760.555997
 21
618.338424
 31
0.0
  0
LINE
  5
244
100
AcDbEntity
  8
2
  6
CONTINUOUS
 62
     7
100
AcDbLine
 10
760.555997
 20
530.255424
 30
0.0
 11
753.555997
 21
526.213924
 31
0.0
  0
LINE
  5
245
100
AcDbEntity
  8
2
  6
CONTINUOUS
 62
     7
100
AcDbLine
 10
753.555997
 20
542.379924
 30
0.0
 11
760.555997
 21
538.338424
 31
0.0
  0
LINE
  5
246
100
AcDbEntity
  8
2
  6
CONTINUOUS
 62
     7
100
AcDbLine
 10
760.555997
 20
538.338424
 30
0.0
 11
760.555997
 21
530.255424
 31
0.0
  0
LINE
  5
247
100
AcDbEntity
  8
2
  6
CONTINUOUS
 62
     7
100
AcDbLine
 10
1157.150997
 20
446.296924
 30
0.0
 11
1157.150997
 21
445.008924
 31
0.0
  0
LINE
  5
248
100
AcDbEntity
  8
2
  6
CONTINUOUS
 62
     7
100
AcDbLine
 10
1152.150997
 20
343.584924
 30
0.0
 11
1152.150997
 21
342.296924
 31
0.0
  0
LINE
  5
249
100
AcDbEntity
  8
2
  6
CONTINUOUS
 62
     7
100
AcDbLine
 10
1157.150997
 20
343.584924
 30
0.0
 11
1157.150997
 21
342.296924
 31
0.0
  0
LINE
  5
24A
100
AcDbEntity
  8
2
  6
CONTINUOUS
 62
     7
100
AcDbLine
 10
1152.150997
 20
446.296924
 30
0.0
 11
1152.150997
 21
445.008924
 31
0.0
  0
LINE
  5
24B
100
AcDbEntity
  8
2
  6
CENTER
 62
     7
100
AcDbLine
 10
1138.388997
 20
434.296924
 30
0.0
 11
1168.157497
 21
434.296924
 31
0.0
  0
LINE
  5
24C
100
AcDbEntity
  8
2
  6
CENTER
 62
     7
100
AcDbLine
 10
1154.650997
 20
448.308924
 30
0.0
 11
1154.650997
 21
419.532424
 31
0.0
  0
LINE
  5
24D
100
AcDbEntity
  8
2
  6
CONTINUOUS
 62
     7
100
AcDbLine
 10
1147.650997
 20
438.338424
 30
0.0
 11
1147.650997
 21
430.255424
 31
0.0
  0
LINE
  5
24E
100
AcDbEntity
  8
2
  6
CONTINUOUS
 62
     7
100
AcDbLine
 10
1161.650997
 20
430.255424
 30
0.0
 11
1154.650997
 21
426.213924
 31
0.0
  0
LINE
  5
24F
100
AcDbEntity
  8
2
  6
CONTINUOUS
 62
     7
100
AcDbLine
 10
1154.650997
 20
362.379924
 30
0.0
 11
1147.650997
 21
358.338424
 31
0.0
  0
LINE
  5
250
100
AcDbEntity
  8
2
  6
CENTER
 62
     7
100
AcDbLine
 10
1138.388997
 20
354.296924
 30
0.0
 11
1168.157497
 21
354.296924
 31
0.0
  0
LINE
  5
251
100
AcDbEntity
  8
2
  6
CENTER
 62
     7
100
AcDbLine
 10
1154.650997
 20
368.308924
 30
0.0
 11
1154.650997
 21
339.532424
 31
0.0
  0
LINE
  5
252
100
AcDbEntity
  8
2
  6
CONTINUOUS
 62
     7
100
AcDbLine
 10
1147.650997
 20
358.338424
 30
0.0
 11
1147.650997
 21
350.255424
 31
0.0
  0
LINE
  5
253
100
AcDbEntity
  8
2
  6
CONTINUOUS
 62
     7
100
AcDbLine
 10
1154.650997
 20
346.213924
 30
0.0
 11
1147.650997
 21
350.255424
 31
0.0
  0
LINE
  5
254
100
AcDbEntity
  8
2
  6
CONTINUOUS
 62
     7
100
AcDbLine
 10
1154.650997
 20
426.213924
 30
0.0
 11
1147.650997
 21
430.255424
 31
0.0
  0
LINE
  5
255
100
AcDbEntity
  8
2
  6
CONTINUOUS
 62
     7
100
AcDbLine
 10
1154.650997
 20
442.379924
 30
0.0
 11
1147.650997
 21
438.338424
 31
0.0
  0
LINE
  5
256
100
AcDbEntity
  8
2
  6
CONTINUOUS
 62
     7
100
AcDbLine
 10
1161.650997
 20
438.338424
 30
0.0
 11
1161.650997
 21
430.255424
 31
0.0
  0
LINE
  5
257
100
AcDbEntity
  8
2
  6
CONTINUOUS
 62
     7
100
AcDbLine
 10
1154.650997
 20
442.379924
 30
0.0
 11
1161.650997
 21
438.338424
 31
0.0
  0
LINE
  5
258
100
AcDbEntity
  8
2
  6
CONTINUOUS
 62
     7
100
AcDbLine
 10
1161.650997
 20
350.255424
 30
0.0
 11
1154.650997
 21
346.213924
 31
0.0
  0
LINE
  5
259
100
AcDbEntity
  8
2
  6
CONTINUOUS
 62
     7
100
AcDbLine
 10
1154.650997
 20
362.379924
 30
0.0
 11
1161.650997
 21
358.338424
 31
0.0
  0
LINE
  5
25A
100
AcDbEntity
  8
2
  6
CONTINUOUS
 62
     7
100
AcDbLine
 10
1161.650997
 20
358.338424
 30
0.0
 11
1161.650997
 21
350.255424
 31
0.0
  0
LINE
  5
25B
100
AcDbEntity
  8
2
  6
CONTINUOUS
 62
     7
100
AcDbLine
 10
1707.150997
 20
446.296924
 30
0.0
 11
1707.150997
 21
445.008924
 31
0.0
  0
LINE
  5
25C
100
AcDbEntity
  8
2
  6
CONTINUOUS
 62
     7
100
AcDbLine
 10
1702.150997
 20
343.584924
 30
0.0
 11
1702.150997
 21
342.296924
 31
0.0
  0
LINE
  5
25D
100
AcDbEntity
  8
2
  6
CONTINUOUS
 62
     7
100
AcDbLine
 10
1707.150997
 20
343.584924
 30
0.0
 11
1707.150997
 21
342.296924
 31
0.0
  0
LINE
  5
25E
100
AcDbEntity
  8
2
  6
CONTINUOUS
 62
     7
100
AcDbLine
 10
1702.150997
 20
446.296924
 30
0.0
 11
1702.150997
 21
445.008924
 31
0.0
  0
LINE
  5
25F
100
AcDbEntity
  8
2
  6
CENTER
 62
     7
100
AcDbLine
 10
1688.388997
 20
434.296924
 30
0.0
 11
1718.157497
 21
434.296924
 31
0.0
  0
LINE
  5
260
100
AcDbEntity
  8
2
  6
CENTER
 62
     7
100
AcDbLine
 10
1704.650997
 20
448.308924
 30
0.0
 11
1704.650997
 21
419.532424
 31
0.0
  0
LINE
  5
261
100
AcDbEntity
  8
2
  6
CONTINUOUS
 62
     7
100
AcDbLine
 10
1697.650997
 20
438.338424
 30
0.0
 11
1697.650997
 21
430.255424
 31
0.0
  0
LINE
  5
262
100
AcDbEntity
  8
2
  6
CONTINUOUS
 62
     7
100
AcDbLine
 10
1711.650997
 20
430.255424
 30
0.0
 11
1704.650997
 21
426.213924
 31
0.0
  0
LINE
  5
263
100
AcDbEntity
  8
2
  6
CONTINUOUS
 62
     7
100
AcDbLine
 10
1704.650997
 20
362.379924
 30
0.0
 11
1697.650997
 21
358.338424
 31
0.0
  0
LINE
  5
264
100
AcDbEntity
  8
2
  6
CENTER
 62
     7
100
AcDbLine
 10
1688.388997
 20
354.296924
 30
0.0
 11
1718.157497
 21
354.296924
 31
0.0
  0
LINE
  5
265
100
AcDbEntity
  8
2
  6
CENTER
 62
     7
100
AcDbLine
 10
1704.650997
 20
368.308924
 30
0.0
 11
1704.650997
 21
339.532424
 31
0.0
  0
LINE
  5
266
100
AcDbEntity
  8
2
  6
CONTINUOUS
 62
     7
100
AcDbLine
 10
1697.650997
 20
358.338424
 30
0.0
 11
1697.650997
 21
350.255424
 31
0.0
  0
LINE
  5
267
100
AcDbEntity
  8
2
  6
CONTINUOUS
 62
     7
100
AcDbLine
 10
1704.650997
 20
346.213924
 30
0.0
 11
1697.650997
 21
350.255424
 31
0.0
  0
LINE
  5
268
100
AcDbEntity
  8
2
  6
CONTINUOUS
 62
     7
100
AcDbLine
 10
1704.650997
 20
426.213924
 30
0.0
 11
1697.650997
 21
430.255424
 31
0.0
  0
LINE
  5
269
100
AcDbEntity
  8
2
  6
CONTINUOUS
 62
     7
100
AcDbLine
 10
1704.650997
 20
442.379924
 30
0.0
 11
1697.650997
 21
438.338424
 31
0.0
  0
LINE
  5
26A
100
AcDbEntity
  8
2
  6
CONTINUOUS
 62
     7
100
AcDbLine
 10
1711.650997
 20
438.338424
 30
0.0
 11
1711.650997
 21
430.255424
 31
0.0
  0
LINE
  5
26B
100
AcDbEntity
  8
2
  6
CONTINUOUS
 62
     7
100
AcDbLine
 10
1704.650997
 20
442.379924
 30
0.0
 11
1711.650997
 21
438.338424
 31
0.0
  0
LINE
  5
26C
100
AcDbEntity
  8
2
  6
CONTINUOUS
 62
     7
100
AcDbLine
 10
1711.650997
 20
350.255424
 30
0.0
 11
1704.650997
 21
346.213924
 31
0.0
  0
LINE
  5
26D
100
AcDbEntity
  8
2
  6
CONTINUOUS
 62
     7
100
AcDbLine
 10
1704.650997
 20
362.379924
 30
0.0
 11
1711.650997
 21
358.338424
 31
0.0
  0
LINE
  5
26E
100
AcDbEntity
  8
2
  6
CONTINUOUS
 62
     7
100
AcDbLine
 10
1711.650997
 20
358.338424
 30
0.0
 11
1711.650997
 21
350.255424
 31
0.0
  0
LINE
  5
26F
100
AcDbEntity
  8
2
  6
CONTINUOUS
 62
     7
100
AcDbLine
 10
909.555997
 20
718.146924
 30
0.0
 11
909.555997
 21
623.146924
 31
0.0
  0
LINE
  5
270
100
AcDbEntity
  8
2
  6
CONTINUOUS
 62
     7
100
AcDbLine
 10
908.055997
 20
718.146924
 30
0.0
 11
909.555997
 21
718.146924
 31
0.0
  0
LINE
  5
271
100
AcDbEntity
  8
2
  6
CONTINUOUS
 62
     7
100
AcDbLine
 10
908.055997
 20
623.146924
 30
0.0
 11
909.555997
 21
623.146924
 31
0.0
  0
ARC
  5
272
100
AcDbEntity
  8
2
  6
CONTINUOUS
 62
     7
100
AcDbCircle
 10
1012.150997
 20
536.146924
 30
0.0
 40
2.0
100
AcDbArc
 50
90.0
 51
180.0
  0
ARC
  5
273
100
AcDbEntity
  8
2
  6
CONTINUOUS
 62
     7
100
AcDbCircle
 10
1012.150997
 20
445.146924
 30
0.0
 40
2.0
100
AcDbArc
 50
180.0
 51
-90.0
  0
ARC
  5
274
100
AcDbEntity
  8
2
  6
CONTINUOUS
 62
     7
100
AcDbCircle
 10
1021.150997
 20
536.146924
 30
0.0
 40
2.0
100
AcDbArc
 50
0.0
 51
90.0
  0
ARC
  5
275
100
AcDbEntity
  8
2
  6
CONTINUOUS
 62
     7
100
AcDbCircle
 10
1021.150997
 20
445.146924
 30
0.0
 40
2.0
100
AcDbArc
 50
-90.0
 51
0.0
  0
ARC
  5
276
100
AcDbEntity
  8
2
  6
CONTINUOUS
 62
     7
100
AcDbCircle
 10
1027.150997
 20
512.496924
 30
0.0
 40
4.0
100
AcDbArc
 50
180.0
 51
-90.0
  0
ARC
  5
277
100
AcDbEntity
  8
2
  6
CONTINUOUS
 62
     7
100
AcDbCircle
 10
1027.150997
 20
468.796924
 30
0.0
 40
4.0
100
AcDbArc
 50
90.0
 51
180.0
  0
ARC
  5
278
100
AcDbEntity
  8
2
  6
CONTINUOUS
 62
     7
100
AcDbCircle
 10
1609.150997
 20
460.546924
 30
0.0
 40
21.25
100
AcDbArc
 50
64.9424
 51
115.0576
  0
ARC
  5
279
100
AcDbEntity
  8
2
  6
CONTINUOUS
 62
     7
100
AcDbCircle
 10
1806.150997
 20
536.146924
 30
0.0
 40
2.0
100
AcDbArc
 50
0.0
 51
90.0
  0
ARC
  5
27A
100
AcDbEntity
  8
2
  6
CONTINUOUS
 62
     7
100
AcDbCircle
 10
1806.150997
 20
445.146924
 30
0.0
 40
2.0
100
AcDbArc
 50
-90.0
 51
0.0
  0
ARC
  5
27B
100
AcDbEntity
  8
2
  6
CONTINUOUS
 62
     7
100
AcDbCircle
 10
1797.150997
 20
536.146924
 30
0.0
 40
2.0
100
AcDbArc
 50
90.0
 51
180.0
  0
ARC
  5
27C
100
AcDbEntity
  8
2
  6
CONTINUOUS
 62
     7
100
AcDbCircle
 10
1797.150997
 20
445.146924
 30
0.0
 40
2.0
100
AcDbArc
 50
180.0
 51
-90.0
  0
ARC
  5
27D
100
AcDbEntity
  8
2
  6
CONTINUOUS
 62
     7
100
AcDbCircle
 10
1791.150997
 20
512.496924
 30
0.0
 40
4.0
100
AcDbArc
 50
-90.0
 51
0.0
  0
ARC
  5
27E
100
AcDbEntity
  8
2
  6
CONTINUOUS
 62
     7
100
AcDbCircle
 10
1791.150997
 20
468.796924
 30
0.0
 40
4.0
100
AcDbArc
 50
0.0
 51
90.0
  0
CIRCLE
  5
27F
100
AcDbEntity
  8
2
  6
CONTINUOUS
 62
     7
100
AcDbCircle
 10
1609.150997
 20
436.796924
 30
0.0
 40
4.0415
  0
ARC
  5
280
100
AcDbEntity
  8
2
  6
CONTINUOUS
 62
     7
100
AcDbCircle
 10
1609.150997
 20
436.796924
 30
0.0
 40
7.0
100
AcDbArc
 50
90.0
 51
180.0
  0
CIRCLE
  5
281
100
AcDbEntity
  8
2
  6
CONTINUOUS
 62
     7
100
AcDbCircle
 10
1609.150997
 20
436.796924
 30
0.0
 40
2.5
  0
CIRCLE
  5
282
100
AcDbEntity
  8
2
  6
CONTINUOUS
 62
     7
100
AcDbCircle
 10
1609.150997
 20
436.796924
 30
0.0
 40
3.5
  0
ARC
  5
283
100
AcDbEntity
  8
2
  6
CONTINUOUS
 62
     7
100
AcDbCircle
 10
1603.650997
 20
444.296924
 30
0.0
 40
20.5
100
AcDbArc
 50
77.3196
 51
102.6804
  0
ARC
  5
284
100
AcDbEntity
  8
2
  6
CONTINUOUS
 62
     7
100
AcDbCircle
 10
1614.650997
 20
444.296924
 30
0.0
 40
20.5
100
AcDbArc
 50
77.3196
 51
102.6804
  0
CIRCLE
  5
285
100
AcDbEntity
  8
2
  6
CONTINUOUS
 62
     7
100
AcDbCircle
 10
1609.150997
 20
436.796924
 30
0.0
 40
2.0
  0
CIRCLE
  5
286
100
AcDbEntity
  8
2
  6
CONTINUOUS
 62
     7
100
AcDbCircle
 10
1209.150997
 20
436.796924
 30
0.0
 40
4.0415
  0
ARC
  5
287
100
AcDbEntity
  8
2
  6
CONTINUOUS
 62
     7
100
AcDbCircle
 10
1209.150997
 20
436.796924
 30
0.0
 40
7.0
100
AcDbArc
 50
90.0
 51
180.0
  0
CIRCLE
  5
288
100
AcDbEntity
  8
2
  6
CONTINUOUS
 62
     7
100
AcDbCircle
 10
1209.150997
 20
436.796924
 30
0.0
 40
2.5
  0
CIRCLE
  5
289
100
AcDbEntity
  8
2
  6
CONTINUOUS
 62
     7
100
AcDbCircle
 10
1209.150997
 20
436.796924
 30
0.0
 40
3.5
  0
ARC
  5
28A
100
AcDbEntity
  8
2
  6
CONTINUOUS
 62
     7
100
AcDbCircle
 10
1203.650997
 20
444.296924
 30
0.0
 40
20.5
100
AcDbArc
 50
77.3196
 51
102.6804
  0
ARC
  5
28B
100
AcDbEntity
  8
2
  6
CONTINUOUS
 62
     7
100
AcDbCircle
 10
1214.650997
 20
444.296924
 30
0.0
 40
20.5
100
AcDbArc
 50
77.3196
 51
102.6804
  0
CIRCLE
  5
28C
100
AcDbEntity
  8
2
  6
CONTINUOUS
 62
     7
100
AcDbCircle
 10
1209.150997
 20
436.796924
 30
0.0
 40
2.0
  0
ARC
  5
28D
100
AcDbEntity
  8
2
  6
CONTINUOUS
 62
     7
100
AcDbCircle
 10
1209.150997
 20
460.546924
 30
0.0
 40
21.25
100
AcDbArc
 50
64.9424
 51
115.0576
  0
ARC
  5
28E
100
AcDbEntity
  8
2
  6
CONTINUOUS
 62
     7
100
AcDbCircle
 10
905.055997
 20
716.146924
 30
0.0
 40
2.0
100
AcDbArc
 50
0.0
 51
90.0
  0
ARC
  5
28F
100
AcDbEntity
  8
2
  6
CONTINUOUS
 62
     7
100
AcDbCircle
 10
905.055997
 20
625.146924
 30
0.0
 40
2.0
100
AcDbArc
 50
-90.0
 51
0.0
  0
ARC
  5
290
100
AcDbEntity
  8
2
  6
CONTINUOUS
 62
     7
100
AcDbCircle
 10
896.055997
 20
716.146924
 30
0.0
 40
2.0
100
AcDbArc
 50
90.0
 51
180.0
  0
ARC
  5
291
100
AcDbEntity
  8
2
  6
CONTINUOUS
 62
     7
100
AcDbCircle
 10
896.055997
 20
625.146924
 30
0.0
 40
2.0
100
AcDbArc
 50
180.0
 51
-90.0
  0
ARC
  5
292
100
AcDbEntity
  8
2
  6
CONTINUOUS
 62
     7
100
AcDbCircle
 10
890.055997
 20
692.496924
 30
0.0
 40
4.0
100
AcDbArc
 50
-90.0
 51
0.0
  0
ARC
  5
293
100
AcDbEntity
  8
2
  6
CONTINUOUS
 62
     7
100
AcDbCircle
 10
890.055997
 20
648.796924
 30
0.0
 40
4.0
100
AcDbArc
 50
0.0
 51
90.0
  0
ARC
  5
294
100
AcDbEntity
  8
2
  6
CONTINUOUS
 62
     7
100
AcDbCircle
 10
308.055997
 20
640.546924
 30
0.0
 40
21.25
100
AcDbArc
 50
64.9424
 51
115.0576
  0
ARC
  5
295
100
AcDbEntity
  8
2
  6
CONTINUOUS
 62
     7
100
AcDbCircle
 10
111.055997
 20
716.146924
 30
0.0
 40
2.0
100
AcDbArc
 50
90.0
 51
180.0
  0
ARC
  5
296
100
AcDbEntity
  8
2
  6
CONTINUOUS
 62
     7
100
AcDbCircle
 10
111.055997
 20
625.146924
 30
0.0
 40
2.0
100
AcDbArc
 50
180.0
 51
-90.0
  0
ARC
  5
297
100
AcDbEntity
  8
2
  6
CONTINUOUS
 62
     7
100
AcDbCircle
 10
120.055997
 20
716.146924
 30
0.0
 40
2.0
100
AcDbArc
 50
0.0
 51
90.0
  0
ARC
  5
298
100
AcDbEntity
  8
2
  6
CONTINUOUS
 62
     7
100
AcDbCircle
 10
120.055997
 20
625.146924
 30
0.0
 40
2.0
100
AcDbArc
 50
-90.0
 51
0.0
  0
ARC
  5
299
100
AcDbEntity
  8
2
  6
CONTINUOUS
 62
     7
100
AcDbCircle
 10
126.055997
 20
692.496924
 30
0.0
 40
4.0
100
AcDbArc
 50
180.0
 51
-90.0
  0
ARC
  5
29A
100
AcDbEntity
  8
2
  6
CONTINUOUS
 62
     7
100
AcDbCircle
 10
126.055997
 20
648.796924
 30
0.0
 40
4.0
100
AcDbArc
 50
90.0
 51
180.0
  0
CIRCLE
  5
29B
100
AcDbEntity
  8
2
  6
CONTINUOUS
 62
     7
100
AcDbCircle
 10
308.055997
 20
616.796924
 30
0.0
 40
4.0415
  0
CIRCLE
  5
29C
100
AcDbEntity
  8
2
  6
CONTINUOUS
 62
     7
100
AcDbCircle
 10
308.055997
 20
616.796924
 30
0.0
 40
2.5
  0
CIRCLE
  5
29D
100
AcDbEntity
  8
2
  6
CONTINUOUS
 62
     7
100
AcDbCircle
 10
308.055997
 20
616.796924
 30
0.0
 40
3.5
  0
ARC
  5
29E
100
AcDbEntity
  8
2
  6
CONTINUOUS
 62
     7
100
AcDbCircle
 10
313.555997
 20
624.296924
 30
0.0
 40
20.5
100
AcDbArc
 50
77.3196
 51
102.6804
  0
ARC
  5
29F
100
AcDbEntity
  8
2
  6
CONTINUOUS
 62
     7
100
AcDbCircle
 10
302.555997
 20
624.296924
 30
0.0
 40
20.5
100
AcDbArc
 50
77.3196
 51
102.6804
  0
CIRCLE
  5
2A0
100
AcDbEntity
  8
2
  6
CONTINUOUS
 62
     7
100
AcDbCircle
 10
308.055997
 20
616.796924
 30
0.0
 40
2.0
  0
CIRCLE
  5
2A1
100
AcDbEntity
  8
2
  6
CONTINUOUS
 62
     7
100
AcDbCircle
 10
708.055997
 20
616.796924
 30
0.0
 40
4.0415
  0
CIRCLE
  5
2A2
100
AcDbEntity
  8
2
  6
CONTINUOUS
 62
     7
100
AcDbCircle
 10
708.055997
 20
616.796924
 30
0.0
 40
2.5
  0
CIRCLE
  5
2A3
100
AcDbEntity
  8
2
  6
CONTINUOUS
 62
     7
100
AcDbCircle
 10
708.055997
 20
616.796924
 30
0.0
 40
3.5
  0
ARC
  5
2A4
100
AcDbEntity
  8
2
  6
CONTINUOUS
 62
     7
100
AcDbCircle
 10
713.555997
 20
624.296924
 30
0.0
 40
20.5
100
AcDbArc
 50
77.3196
 51
102.6804
  0
ARC
  5
2A5
100
AcDbEntity
  8
2
  6
CONTINUOUS
 62
     7
100
AcDbCircle
 10
702.555997
 20
624.296924
 30
0.0
 40
20.5
100
AcDbArc
 50
77.3196
 51
102.6804
  0
CIRCLE
  5
2A6
100
AcDbEntity
  8
2
  6
CONTINUOUS
 62
     7
100
AcDbCircle
 10
708.055997
 20
616.796924
 30
0.0
 40
2.0
  0
ARC
  5
2A7
100
AcDbEntity
  8
2
  6
CONTINUOUS
 62
     7
100
AcDbCircle
 10
708.055997
 20
640.546924
 30
0.0
 40
21.25
100
AcDbArc
 50
64.9424
 51
115.0576
  0
ARC
  5
2A8
100
AcDbEntity
  8
2
  6
CONTINUOUS
 62
     7
100
AcDbCircle
 10
211.805997
 20
651.609424
 30
0.0
 40
1.8125
100
AcDbArc
 50
-133.6028
 51
-46.3972
  0
ARC
  5
2A9
100
AcDbEntity
  8
2
  6
CONTINUOUS
 62
     7
100
AcDbCircle
 10
208.055997
 20
656.296924
 30
0.0
 40
6.5
100
AcDbArc
 50
-112.6199
 51
-90.0
  0
ARC
  5
2AA
100
AcDbEntity
  8
2
  6
CONTINUOUS
 62
     7
100
AcDbCircle
 10
208.055997
 20
656.296924
 30
0.0
 40
6.5
100
AcDbArc
 50
-90.0
 51
-67.3801
  0
ARC
  5
2AB
100
AcDbEntity
  8
2
  6
CONTINUOUS
 62
     7
100
AcDbCircle
 10
204.305997
 20
651.609424
 30
0.0
 40
1.8125
100
AcDbArc
 50
-133.6028
 51
-46.3972
  0
ARC
  5
2AC
100
AcDbEntity
  8
2
  6
CONTINUOUS
 62
     7
100
AcDbCircle
 10
761.805997
 20
651.609424
 30
0.0
 40
1.8125
100
AcDbArc
 50
-133.6028
 51
-46.3972
  0
ARC
  5
2AD
100
AcDbEntity
  8
2
  6
CONTINUOUS
 62
     7
100
AcDbCircle
 10
758.055997
 20
656.296924
 30
0.0
 40
6.5
100
AcDbArc
 50
-112.6199
 51
-90.0
  0
ARC
  5
2AE
100
AcDbEntity
  8
2
  6
CONTINUOUS
 62
     7
100
AcDbCircle
 10
758.055997
 20
656.296924
 30
0.0
 40
6.5
100
AcDbArc
 50
-90.0
 51
-67.3801
  0
ARC
  5
2AF
100
AcDbEntity
  8
2
  6
CONTINUOUS
 62
     7
100
AcDbCircle
 10
754.305997
 20
651.609424
 30
0.0
 40
1.8125
100
AcDbArc
 50
-133.6028
 51
-46.3972
  0
ARC
  5
2B0
100
AcDbEntity
  8
2
  6
CONTINUOUS
 62
     7
100
AcDbCircle
 10
1162.900997
 20
471.609424
 30
0.0
 40
1.8125
100
AcDbArc
 50
-133.6028
 51
-46.3972
  0
ARC
  5
2B1
100
AcDbEntity
  8
2
  6
CONTINUOUS
 62
     7
100
AcDbCircle
 10
1159.150997
 20
476.296924
 30
0.0
 40
6.5
100
AcDbArc
 50
-112.6199
 51
-90.0
  0
ARC
  5
2B2
100
AcDbEntity
  8
2
  6
CONTINUOUS
 62
     7
100
AcDbCircle
 10
1159.150997
 20
476.296924
 30
0.0
 40
6.5
100
AcDbArc
 50
-90.0
 51
-67.3801
  0
ARC
  5
2B3
100
AcDbEntity
  8
2
  6
CONTINUOUS
 62
     7
100
AcDbCircle
 10
1155.400997
 20
471.609424
 30
0.0
 40
1.8125
100
AcDbArc
 50
-133.6028
 51
-46.3972
  0
ARC
  5
2B4
100
AcDbEntity
  8
2
  6
CONTINUOUS
 62
     7
100
AcDbCircle
 10
1712.900997
 20
471.609424
 30
0.0
 40
1.8125
100
AcDbArc
 50
-133.6028
 51
-46.3972
  0
ARC
  5
2B5
100
AcDbEntity
  8
2
  6
CONTINUOUS
 62
     7
100
AcDbCircle
 10
1709.150997
 20
476.296924
 30
0.0
 40
6.5
100
AcDbArc
 50
-112.6199
 51
-90.0
  0
ARC
  5
2B6
100
AcDbEntity
  8
2
  6
CONTINUOUS
 62
     7
100
AcDbCircle
 10
1709.150997
 20
476.296924
 30
0.0
 40
6.5
100
AcDbArc
 50
-90.0
 51
-67.3801
  0
ARC
  5
2B7
100
AcDbEntity
  8
2
  6
CONTINUOUS
 62
     7
100
AcDbCircle
 10
1705.400997
 20
471.609424
 30
0.0
 40
1.8125
100
AcDbArc
 50
-133.6028
 51
-46.3972
  0
ARC
  5
2B8
100
AcDbEntity
  8
2
  6
CONTINUOUS
 62
     7
100
AcDbCircle
 10
981.900497
 20
490.646924
 30
0.0
 40
47.5
100
AcDbArc
 50
90.0
 51
180.0
  0
ARC
  5
2B9
100
AcDbEntity
  8
2
  6
CONTINUOUS
 62
     7
100
AcDbCircle
 10
981.900497
 20
490.646924
 30
0.0
 40
25.5
100
AcDbArc
 50
90.0
 51
180.0
  0
ARC
  5
2BA
100
AcDbEntity
  8
2
  6
CENTER
 62
     7
100
AcDbCircle
 10
981.900497
 20
490.646924
 30
0.0
 40
35.0
100
AcDbArc
 50
90.0
 51
180.0
  0
CIRCLE
  5
2BB
100
AcDbEntity
  8
2
  6
CONTINUOUS
 62
     7
100
AcDbCircle
 10
957.151997
 20
515.395424
 30
0.0
 40
7.5
  0
CIRCLE
  5
2BC
100
AcDbEntity
  8
2
  6
CONTINUOUS
 62
     7
100
AcDbCircle
 10
957.151997
 20
465.898424
 30
0.0
 40
7.5
  0
ARC
  5
2BD
100
AcDbEntity
  8
2
  6
CONTINUOUS
 62
     7
100
AcDbCircle
 10
981.900497
 20
490.646924
 30
0.0
 40
25.5
100
AcDbArc
 50
180.0
 51
-90.0
  0
ARC
  5
2BE
100
AcDbEntity
  8
2
  6
CENTER
 62
     7
100
AcDbCircle
 10
981.900497
 20
490.646924
 30
0.0
 40
35.0
100
AcDbArc
 50
180.0
 51
-90.0
  0
ARC
  5
2BF
100
AcDbEntity
  8
2
  6
CONTINUOUS
 62
     7
100
AcDbCircle
 10
981.900497
 20
490.646924
 30
0.0
 40
47.5
100
AcDbArc
 50
180.0
 51
-90.0
  0
ARC
  5
2C0
100
AcDbEntity
  8
2
  6
CONTINUOUS
 62
     7
100
AcDbCircle
 10
981.900497
 20
490.646924
 30
0.0
 40
10.85
100
AcDbArc
 50
90.0
 51
180.0
  0
ARC
  5
2C1
100
AcDbEntity
  8
2
  6
CONTINUOUS
 62
     7
100
AcDbCircle
 10
981.900497
 20
490.646924
 30
0.0
 40
7.15
100
AcDbArc
 50
180.0
 51
-90.0
  0
ARC
  5
2C2
100
AcDbEntity
  8
2
  6
CONTINUOUS
 62
     7
100
AcDbCircle
 10
981.900497
 20
490.646924
 30
0.0
 40
10.85
100
AcDbArc
 50
180.0
 51
-90.0
  0
ARC
  5
2C3
100
AcDbEntity
  8
2
  6
CONTINUOUS
 62
     7
100
AcDbCircle
 10
981.900497
 20
490.646924
 30
0.0
 40
7.15
100
AcDbArc
 50
90.0
 51
-90.0
  0
ARC
  5
2C4
100
AcDbEntity
  8
2
  6
CONTINUOUS
 62
     7
100
AcDbCircle
 10
708.055997
 20
616.796924
 30
0.0
 40
7.0
100
AcDbArc
 50
90.0
 51
180.0
  0
ARC
  5
2C5
100
AcDbEntity
  8
2
  6
CONTINUOUS
 62
     7
100
AcDbCircle
 10
308.055997
 20
616.796924
 30
0.0
 40
7.0
100
AcDbArc
 50
90.0
 51
180.0
  0
ARC
  5
2C6
100
AcDbEntity
  8
2
  6
CONTINUOUS
 62
     7
100
AcDbCircle
 10
203.555997
 20
522.296924
 30
0.0
 40
2.5
100
AcDbArc
 50
180.0
 51
0.0
  0
ARC
  5
2C7
100
AcDbEntity
  8
2
  6
CONTINUOUS
 62
     7
100
AcDbCircle
 10
203.555997
 20
626.296924
 30
0.0
 40
2.5
100
AcDbArc
 50
0.0
 51
180.0
  0
CIRCLE
  5
2C8
100
AcDbEntity
  8
2
  6
CONTINUOUS
 62
     7
100
AcDbCircle
 10
203.555997
 20
534.296924
 30
0.0
 40
11.0
  0
CIRCLE
  5
2C9
100
AcDbEntity
  8
2
  6
CONTINUOUS
 62
     7
100
AcDbCircle
 10
203.555997
 20
614.296924
 30
0.0
 40
7.0
  0
CIRCLE
  5
2CA
100
AcDbEntity
  8
2
  6
CONTINUOUS
 62
     7
100
AcDbCircle
 10
203.555997
 20
614.296924
 30
0.0
 40
11.0
  0
CIRCLE
  5
2CB
100
AcDbEntity
  8
2
  6
CONTINUOUS
 62
     7
100
AcDbCircle
 10
203.555997
 20
614.296924
 30
0.0
 40
5.0
  0
CIRCLE
  5
2CC
100
AcDbEntity
  8
2
  6
CONTINUOUS
 62
     7
100
AcDbCircle
 10
203.555997
 20
614.296924
 30
0.0
 40
4.2
  0
CIRCLE
  5
2CD
100
AcDbEntity
  8
2
  6
CONTINUOUS
 62
     7
100
AcDbCircle
 10
203.555997
 20
614.296924
 30
0.0
 40
3.25
  0
CIRCLE
  5
2CE
100
AcDbEntity
  8
2
  6
CONTINUOUS
 62
     7
100
AcDbCircle
 10
203.555997
 20
534.296924
 30
0.0
 40
5.0
  0
CIRCLE
  5
2CF
100
AcDbEntity
  8
2
  6
CONTINUOUS
 62
     7
100
AcDbCircle
 10
203.555997
 20
534.296924
 30
0.0
 40
4.2
  0
CIRCLE
  5
2D0
100
AcDbEntity
  8
2
  6
CONTINUOUS
 62
     7
100
AcDbCircle
 10
203.555997
 20
534.296924
 30
0.0
 40
7.0
  0
CIRCLE
  5
2D1
100
AcDbEntity
  8
2
  6
CONTINUOUS
 62
     7
100
AcDbCircle
 10
203.555997
 20
534.296924
 30
0.0
 40
3.25
  0
ARC
  5
2D2
100
AcDbEntity
  8
2
  6
CONTINUOUS
 62
     7
100
AcDbCircle
 10
753.555997
 20
522.296924
 30
0.0
 40
2.5
100
AcDbArc
 50
180.0
 51
0.0
  0
ARC
  5
2D3
100
AcDbEntity
  8
2
  6
CONTINUOUS
 62
     7
100
AcDbCircle
 10
753.555997
 20
626.296924
 30
0.0
 40
2.5
100
AcDbArc
 50
0.0
 51
180.0
  0
CIRCLE
  5
2D4
100
AcDbEntity
  8
2
  6
CONTINUOUS
 62
     7
100
AcDbCircle
 10
753.555997
 20
534.296924
 30
0.0
 40
11.0
  0
CIRCLE
  5
2D5
100
AcDbEntity
  8
2
  6
CONTINUOUS
 62
     7
100
AcDbCircle
 10
753.555997
 20
614.296924
 30
0.0
 40
7.0
  0
CIRCLE
  5
2D6
100
AcDbEntity
  8
2
  6
CONTINUOUS
 62
     7
100
AcDbCircle
 10
753.555997
 20
614.296924
 30
0.0
 40
11.0
  0
CIRCLE
  5
2D7
100
AcDbEntity
  8
2
  6
CONTINUOUS
 62
     7
100
AcDbCircle
 10
753.555997
 20
614.296924
 30
0.0
 40
5.0
  0
CIRCLE
  5
2D8
100
AcDbEntity
  8
2
  6
CONTINUOUS
 62
     7
100
AcDbCircle
 10
753.555997
 20
614.296924
 30
0.0
 40
4.2
  0
CIRCLE
  5
2D9
100
AcDbEntity
  8
2
  6
CONTINUOUS
 62
     7
100
AcDbCircle
 10
753.555997
 20
614.296924
 30
0.0
 40
3.25
  0
CIRCLE
  5
2DA
100
AcDbEntity
  8
2
  6
CONTINUOUS
 62
     7
100
AcDbCircle
 10
753.555997
 20
534.296924
 30
0.0
 40
5.0
  0
CIRCLE
  5
2DB
100
AcDbEntity
  8
2
  6
CONTINUOUS
 62
     7
100
AcDbCircle
 10
753.555997
 20
534.296924
 30
0.0
 40
4.2
  0
CIRCLE
  5
2DC
100
AcDbEntity
  8
2
  6
CONTINUOUS
 62
     7
100
AcDbCircle
 10
753.555997
 20
534.296924
 30
0.0
 40
7.0
  0
CIRCLE
  5
2DD
100
AcDbEntity
  8
2
  6
CONTINUOUS
 62
     7
100
AcDbCircle
 10
753.555997
 20
534.296924
 30
0.0
 40
3.25
  0
ARC
  5
2DE
100
AcDbEntity
  8
2
  6
CONTINUOUS
 62
     7
100
AcDbCircle
 10
1154.650997
 20
342.296924
 30
0.0
 40
2.5
100
AcDbArc
 50
180.0
 51
0.0
  0
ARC
  5
2DF
100
AcDbEntity
  8
2
  6
CONTINUOUS
 62
     7
100
AcDbCircle
 10
1154.650997
 20
446.296924
 30
0.0
 40
2.5
100
AcDbArc
 50
0.0
 51
180.0
  0
CIRCLE
  5
2E0
100
AcDbEntity
  8
2
  6
CONTINUOUS
 62
     7
100
AcDbCircle
 10
1154.650997
 20
354.296924
 30
0.0
 40
11.0
  0
CIRCLE
  5
2E1
100
AcDbEntity
  8
2
  6
CONTINUOUS
 62
     7
100
AcDbCircle
 10
1154.650997
 20
434.296924
 30
0.0
 40
7.0
  0
CIRCLE
  5
2E2
100
AcDbEntity
  8
2
  6
CONTINUOUS
 62
     7
100
AcDbCircle
 10
1154.650997
 20
434.296924
 30
0.0
 40
11.0
  0
CIRCLE
  5
2E3
100
AcDbEntity
  8
2
  6
CONTINUOUS
 62
     7
100
AcDbCircle
 10
1154.650997
 20
434.296924
 30
0.0
 40
5.0
  0
CIRCLE
  5
2E4
100
AcDbEntity
  8
2
  6
CONTINUOUS
 62
     7
100
AcDbCircle
 10
1154.650997
 20
434.296924
 30
0.0
 40
4.2
  0
CIRCLE
  5
2E5
100
AcDbEntity
  8
2
  6
CONTINUOUS
 62
     7
100
AcDbCircle
 10
1154.650997
 20
434.296924
 30
0.0
 40
3.25
  0
CIRCLE
  5
2E6
100
AcDbEntity
  8
2
  6
CONTINUOUS
 62
     7
100
AcDbCircle
 10
1154.650997
 20
354.296924
 30
0.0
 40
5.0
  0
CIRCLE
  5
2E7
100
AcDbEntity
  8
2
  6
CONTINUOUS
 62
     7
100
AcDbCircle
 10
1154.650997
 20
354.296924
 30
0.0
 40
4.2
  0
CIRCLE
  5
2E8
100
AcDbEntity
  8
2
  6
CONTINUOUS
 62
     7
100
AcDbCircle
 10
1154.650997
 20
354.296924
 30
0.0
 40
7.0
  0
CIRCLE
  5
2E9
100
AcDbEntity
  8
2
  6
CONTINUOUS
 62
     7
100
AcDbCircle
 10
1154.650997
 20
354.296924
 30
0.0
 40
3.25
  0
ARC
  5
2EA
100
AcDbEntity
  8
2
  6
CONTINUOUS
 62
     7
100
AcDbCircle
 10
1704.650997
 20
342.296924
 30
0.0
 40
2.5
100
AcDbArc
 50
180.0
 51
0.0
  0
ARC
  5
2EB
100
AcDbEntity
  8
2
  6
CONTINUOUS
 62
     7
100
AcDbCircle
 10
1704.650997
 20
446.296924
 30
0.0
 40
2.5
100
AcDbArc
 50
0.0
 51
180.0
  0
CIRCLE
  5
2EC
100
AcDbEntity
  8
2
  6
CONTINUOUS
 62
     7
100
AcDbCircle
 10
1704.650997
 20
354.296924
 30
0.0
 40
11.0
  0
CIRCLE
  5
2ED
100
AcDbEntity
  8
2
  6
CONTINUOUS
 62
     7
100
AcDbCircle
 10
1704.650997
 20
434.296924
 30
0.0
 40
7.0
  0
CIRCLE
  5
2EE
100
AcDbEntity
  8
2
  6
CONTINUOUS
 62
     7
100
AcDbCircle
 10
1704.650997
 20
434.296924
 30
0.0
 40
11.0
  0
CIRCLE
  5
2EF
100
AcDbEntity
  8
2
  6
CONTINUOUS
 62
     7
100
AcDbCircle
 10
1704.650997
 20
434.296924
 30
0.0
 40
5.0
  0
CIRCLE
  5
2F0
100
AcDbEntity
  8
2
  6
CONTINUOUS
 62
     7
100
AcDbCircle
 10
1704.650997
 20
434.296924
 30
0.0
 40
4.2
  0
CIRCLE
  5
2F1
100
AcDbEntity
  8
2
  6
CONTINUOUS
 62
     7
100
AcDbCircle
 10
1704.650997
 20
434.296924
 30
0.0
 40
3.25
  0
CIRCLE
  5
2F2
100
AcDbEntity
  8
2
  6
CONTINUOUS
 62
     7
100
AcDbCircle
 10
1704.650997
 20
354.296924
 30
0.0
 40
5.0
  0
CIRCLE
  5
2F3
100
AcDbEntity
  8
2
  6
CONTINUOUS
 62
     7
100
AcDbCircle
 10
1704.650997
 20
354.296924
 30
0.0
 40
4.2
  0
CIRCLE
  5
2F4
100
AcDbEntity
  8
2
  6
CONTINUOUS
 62
     7
100
AcDbCircle
 10
1704.650997
 20
354.296924
 30
0.0
 40
7.0
  0
CIRCLE
  5
2F5
100
AcDbEntity
  8
2
  6
CONTINUOUS
 62
     7
100
AcDbCircle
 10
1704.650997
 20
354.296924
 30
0.0
 40
3.25
  0
LINE
  5
2F6
100
AcDbEntity
  8
2
  6
CONTINUOUS
 62
     7
100
AcDbLine
 10
508.055997
 20
681.496924
 30
0.0
 11
608.055997
 21
681.496924
 31
0.0
  0
LINE
  5
2F7
100
AcDbEntity
  8
2
  6
CONTINUOUS
 62
     7
100
AcDbLine
 10
1409.150997
 20
501.496924
 30
0.0
 11
1309.150997
 21
501.496924
 31
0.0
  0
LINE
  5
2F8
100
AcDbEntity
  8
2
  6
CONTINUOUS
 62
     7
100
AcDbLine
 10
883.055997
 20
670.646924
 30
0.0
 11
883.055997
 21
681.496924
 31
0.0
  0
LINE
  5
2F9
100
AcDbEntity
  8
2
  6
CONTINUOUS
 62
     7
100
AcDbLine
 10
133.055997
 20
670.646924
 30
0.0
 11
133.055997
 21
681.496924
 31
0.0
  0
LINE
  5
2FA
100
AcDbEntity
  8
2
  6
CONTINUOUS
 62
     7
100
AcDbLine
 10
1034.150997
 20
490.646924
 30
0.0
 11
1034.150997
 21
501.496924
 31
0.0
  0
LINE
  5
2FB
100
AcDbEntity
  8
2
  6
CONTINUOUS
 62
     7
100
AcDbLine
 10
1784.150997
 20
490.646924
 30
0.0
 11
1784.150997
 21
501.496924
 31
0.0
  0
LINE
  5
2FC
100
AcDbEntity
  8
2
  6
CONTINUOUS
 62
     7
100
AcDbLine
 10
1789.150997
 20
508.496924
 30
0.0
 11
1789.150997
 21
490.646924
 31
0.0
  0
LINE
  5
2FD
100
AcDbEntity
  8
2
  6
CONTINUOUS
 62
     7
100
AcDbLine
 10
1795.150997
 20
536.146924
 30
0.0
 11
1795.150997
 21
490.646924
 31
0.0
  0
LINE
  5
2FE
100
AcDbEntity
  8
2
  6
CONTINUOUS
 62
     7
100
AcDbLine
 10
1808.150997
 20
536.146924
 30
0.0
 11
1808.150997
 21
490.646924
 31
0.0
  0
LINE
  5
2FF
100
AcDbEntity
  8
2
  6
CONTINUOUS
 62
     7
100
AcDbLine
 10
1784.150997
 20
501.496924
 30
0.0
 11
1409.150997
 21
501.496924
 31
0.0
  0
LINE
  5
300
100
AcDbEntity
  8
2
  6
CONTINUOUS
 62
     7
100
AcDbLine
 10
1029.150997
 20
508.496924
 30
0.0
 11
1029.150997
 21
490.646924
 31
0.0
  0
LINE
  5
301
100
AcDbEntity
  8
2
  6
CONTINUOUS
 62
     7
100
AcDbLine
 10
1023.150997
 20
536.146924
 30
0.0
 11
1023.150997
 21
490.646924
 31
0.0
  0
LINE
  5
302
100
AcDbEntity
  8
2
  6
CONTINUOUS
 62
     7
100
AcDbLine
 10
1010.150997
 20
536.146924
 30
0.0
 11
1010.150997
 21
490.646924
 31
0.0
  0
LINE
  5
303
100
AcDbEntity
  8
2
  6
CONTINUOUS
 62
     7
100
AcDbLine
 10
1034.150997
 20
501.496924
 30
0.0
 11
1309.150997
 21
501.496924
 31
0.0
  0
LINE
  5
304
100
AcDbEntity
  8
2
  6
CONTINUOUS
 62
     7
100
AcDbLine
 10
888.055997
 20
688.496924
 30
0.0
 11
888.055997
 21
670.646924
 31
0.0
  0
LINE
  5
305
100
AcDbEntity
  8
2
  6
CONTINUOUS
 62
     7
100
AcDbLine
 10
894.055997
 20
716.146924
 30
0.0
 11
894.055997
 21
670.646924
 31
0.0
  0
LINE
  5
306
100
AcDbEntity
  8
2
  6
CONTINUOUS
 62
     7
100
AcDbLine
 10
907.055997
 20
716.146924
 30
0.0
 11
907.055997
 21
670.646924
 31
0.0
  0
LINE
  5
307
100
AcDbEntity
  8
2
  6
CONTINUOUS
 62
     7
100
AcDbLine
 10
883.055997
 20
681.496924
 30
0.0
 11
608.055997
 21
681.496924
 31
0.0
  0
LINE
  5
308
100
AcDbEntity
  8
2
  6
CONTINUOUS
 62
     7
100
AcDbLine
 10
128.055997
 20
688.496924
 30
0.0
 11
128.055997
 21
670.646924
 31
0.0
  0
LINE
  5
309
100
AcDbEntity
  8
2
  6
CONTINUOUS
 62
     7
100
AcDbLine
 10
122.055997
 20
716.146924
 30
0.0
 11
122.055997
 21
670.646924
 31
0.0
  0
LINE
  5
30A
100
AcDbEntity
  8
2
  6
CONTINUOUS
 62
     7
100
AcDbLine
 10
109.055997
 20
716.146924
 30
0.0
 11
109.055997
 21
670.646924
 31
0.0
  0
LINE
  5
30B
100
AcDbEntity
  8
2
  6
CONTINUOUS
 62
     7
100
AcDbLine
 10
133.055997
 20
681.496924
 30
0.0
 11
508.055997
 21
681.496924
 31
0.0
  0
LINE
  5
30C
100
AcDbEntity
  8
2
  6
CONTINUOUS
 62
     7
100
AcDbLine
 10
211.055997
 20
679.796924
 30
0.0
 11
211.055997
 21
659.796924
 31
0.0
  0
LINE
  5
30D
100
AcDbEntity
  8
2
  6
CONTINUOUS
 62
     7
100
AcDbLine
 10
205.055997
 20
679.796924
 30
0.0
 11
205.055997
 21
659.796924
 31
0.0
  0
ARC
  5
30E
100
AcDbEntity
  8
2
  6
CONTINUOUS
 62
     7
100
AcDbCircle
 10
208.055997
 20
679.796924
 30
0.0
 40
3.0
100
AcDbArc
 50
0.000008
 51
180.0
  0
LINE
  5
30F
100
AcDbEntity
  8
2
  6
CONTINUOUS
 62
     7
100
AcDbLine
 10
761.055997
 20
679.796924
 30
0.0
 11
761.055997
 21
659.796924
 31
0.0
  0
LINE
  5
310
100
AcDbEntity
  8
2
  6
CONTINUOUS
 62
     7
100
AcDbLine
 10
755.055997
 20
679.796924
 30
0.0
 11
755.055997
 21
659.796924
 31
0.0
  0
ARC
  5
311
100
AcDbEntity
  8
2
  6
CONTINUOUS
 62
     7
100
AcDbCircle
 10
758.055997
 20
679.796924
 30
0.0
 40
3.0
100
AcDbArc
 50
0.000008
 51
179.999992
  0
LINE
  5
312
100
AcDbEntity
  8
2
  6
CONTINUOUS
 62
     7
100
AcDbLine
 10
1162.150997
 20
499.796924
 30
0.0
 11
1162.150997
 21
479.796924
 31
0.0
  0
LINE
  5
313
100
AcDbEntity
  8
2
  6
CONTINUOUS
 62
     7
100
AcDbLine
 10
1156.150997
 20
499.796924
 30
0.0
 11
1156.150997
 21
479.796924
 31
0.0
  0
ARC
  5
314
100
AcDbEntity
  8
2
  6
CONTINUOUS
 62
     7
100
AcDbCircle
 10
1159.150997
 20
499.796924
 30
0.0
 40
3.0
100
AcDbArc
 50
0.000008
 51
179.999992
  0
LINE
  5
315
100
AcDbEntity
  8
2
  6
CONTINUOUS
 62
     7
100
AcDbLine
 10
1712.150997
 20
499.796924
 30
0.0
 11
1712.150997
 21
479.796924
 31
0.0
  0
LINE
  5
316
100
AcDbEntity
  8
2
  6
CONTINUOUS
 62
     7
100
AcDbLine
 10
1706.150997
 20
499.796924
 30
0.0
 11
1706.150997
 21
479.796924
 31
0.0
  0
ARC
  5
317
100
AcDbEntity
  8
2
  6
CONTINUOUS
 62
     7
100
AcDbCircle
 10
1709.150997
 20
499.796924
 30
0.0
 40
3.0
100
AcDbArc
 50
0.0
 51
180.0
  0
INSERT
  5
323
100
AcDbEntity
  8
2
  6
CONTINUOUS
 62
     7
100
AcDbBlockReference
  2
*G1
 10
0.0
 20
0.0
 30
0.0
  0
INSERT
  5
32F
100
AcDbEntity
  8
2
  6
CONTINUOUS
 62
     7
100
AcDbBlockReference
  2
*G2
 10
0.0
 20
0.0
 30
0.0
  0
INSERT
  5
33B
100
AcDbEntity
  8
2
  6
CONTINUOUS
 62
     7
100
AcDbBlockReference
  2
*G3
 10
0.0
 20
0.0
 30
0.0
  0
INSERT
  5
346
100
AcDbEntity
  8
2
  6
CONTINUOUS
 62
     7
100
AcDbBlockReference
  2
*G4
 10
0.0
 20
0.0
 30
0.0
  0
INSERT
  5
352
100
AcDbEntity
  8
2
  6
CONTINUOUS
 62
     7
100
AcDbBlockReference
  2
*G5
 10
0.0
 20
0.0
 30
0.0
  0
INSERT
  5
35E
100
AcDbEntity
  8
2
  6
CONTINUOUS
 62
     7
100
AcDbBlockReference
  2
*G6
 10
0.0
 20
0.0
 30
0.0
  0
LINE
  5
35F
100
AcDbEntity
  8
2
  6
CONTINUOUS
 62
     7
100
AcDbLine
 10
520.055857
 20
681.496924
 30
0.0
 11
517.055717
 21
684.497064
 31
0.0
  0
LINE
  5
360
100
AcDbEntity
  8
2
  6
CONTINUOUS
 62
     7
100
AcDbLine
 10
496.056137
 20
681.496924
 30
0.0
 11
499.056277
 21
684.497064
 31
0.0
  0
LINE
  5
361
100
AcDbEntity
  8
2
  6
CONTINUOUS
 62
     7
100
AcDbLine
 10
517.055717
 20
701.496924
 30
0.0
 11
516.055437
 21
702.496504
 31
0.0
  0
LINE
  5
362
100
AcDbEntity
  8
2
  6
CONTINUOUS
 62
     7
100
AcDbLine
 10
512.055717
 20
714.19677
 30
0.0
 11
512.055717
 21
706.19663
 31
0.0
  0
LINE
  5
363
100
AcDbEntity
  8
2
  6
CONTINUOUS
 62
     7
100
AcDbLine
 10
512.055717
 20
714.19677
 30
0.0
 11
508.055997
 21
714.19677
 31
0.0
  0
LINE
  5
364
100
AcDbEntity
  8
2
  6
CONTINUOUS
 62
     7
100
AcDbLine
 10
499.056277
 20
701.496924
 30
0.0
 11
500.055857
 21
702.496504
 31
0.0
  0
LINE
  5
365
100
AcDbEntity
  8
2
  6
CONTINUOUS
 62
     7
100
AcDbLine
 10
504.055577
 20
714.19677
 30
0.0
 11
504.055577
 21
706.19663
 31
0.0
  0
LINE
  5
366
100
AcDbEntity
  8
2
  6
CONTINUOUS
 62
     7
100
AcDbLine
 10
504.055577
 20
714.19677
 30
0.0
 11
508.055997
 21
714.19677
 31
0.0
  0
LINE
  5
367
100
AcDbEntity
  8
2
  6
CONTINUOUS
 62
     7
100
AcDbLine
 10
501.38023
 20
706.19663
 30
0.0
 11
508.055997
 21
706.19663
 31
0.0
  0
LINE
  5
368
100
AcDbEntity
  8
2
  6
CONTINUOUS
 62
     7
100
AcDbLine
 10
514.731063
 20
706.19663
 30
0.0
 11
508.055997
 21
706.19663
 31
0.0
  0
LINE
  5
369
100
AcDbEntity
  8
2
  6
CONTINUOUS
 62
     7
100
AcDbLine
 10
500.055857
 20
702.496504
 30
0.0
 11
508.055997
 21
702.496504
 31
0.0
  0
LINE
  5
36A
100
AcDbEntity
  8
2
  6
CONTINUOUS
 62
     7
100
AcDbLine
 10
516.055437
 20
702.496504
 30
0.0
 11
508.055997
 21
702.496504
 31
0.0
  0
LINE
  5
36B
100
AcDbEntity
  8
2
  6
CONTINUOUS
 62
     7
100
AcDbLine
 10
499.056277
 20
684.497064
 30
0.0
 11
508.055997
 21
684.497064
 31
0.0
  0
LINE
  5
36C
100
AcDbEntity
  8
2
  6
CONTINUOUS
 62
     7
100
AcDbLine
 10
517.055717
 20
684.497064
 30
0.0
 11
508.055997
 21
684.497064
 31
0.0
  0
LINE
  5
36D
100
AcDbEntity
  8
2
  6
CONTINUOUS
 62
     7
100
AcDbLine
 10
499.056277
 20
701.496924
 30
0.0
 11
499.056277
 21
684.497064
 31
0.0
  0
LINE
  5
36E
100
AcDbEntity
  8
2
  6
CONTINUOUS
 62
     7
100
AcDbLine
 10
517.055717
 20
701.496924
 30
0.0
 11
517.055717
 21
684.497064
 31
0.0
  0
LINE
  5
36F
100
AcDbEntity
  8
2
  6
CONTINUOUS
 62
     7
100
AcDbLine
 10
514.634278
 20
702.496504
 30
0.0
 11
514.731063
 21
706.19663
 31
0.0
  0
LINE
  5
370
100
AcDbEntity
  8
2
  6
CONTINUOUS
 62
     7
100
AcDbLine
 10
501.477309
 20
702.496504
 30
0.0
 11
501.38023
 21
706.19663
 31
0.0
  0
LINE
  5
371
100
AcDbEntity
  8
2
  6
CONTINUOUS
 62
     7
100
AcDbLine
 10
1421.150857
 20
501.496924
 30
0.0
 11
1418.150717
 21
504.497064
 31
0.0
  0
LINE
  5
372
100
AcDbEntity
  8
2
  6
CONTINUOUS
 62
     7
100
AcDbLine
 10
1397.151137
 20
501.496924
 30
0.0
 11
1400.151277
 21
504.497064
 31
0.0
  0
LINE
  5
373
100
AcDbEntity
  8
2
  6
CONTINUOUS
 62
     7
100
AcDbLine
 10
1418.150717
 20
521.496924
 30
0.0
 11
1417.150437
 21
522.496504
 31
0.0
  0
LINE
  5
374
100
AcDbEntity
  8
2
  6
CONTINUOUS
 62
     7
100
AcDbLine
 10
1413.150717
 20
534.19677
 30
0.0
 11
1413.150717
 21
526.19663
 31
0.0
  0
LINE
  5
375
100
AcDbEntity
  8
2
  6
CONTINUOUS
 62
     7
100
AcDbLine
 10
1413.150717
 20
534.19677
 30
0.0
 11
1409.150997
 21
534.19677
 31
0.0
  0
LINE
  5
376
100
AcDbEntity
  8
2
  6
CONTINUOUS
 62
     7
100
AcDbLine
 10
1400.151277
 20
521.496924
 30
0.0
 11
1401.150857
 21
522.496504
 31
0.0
  0
LINE
  5
377
100
AcDbEntity
  8
2
  6
CONTINUOUS
 62
     7
100
AcDbLine
 10
1405.150577
 20
534.19677
 30
0.0
 11
1405.150577
 21
526.19663
 31
0.0
  0
LINE
  5
378
100
AcDbEntity
  8
2
  6
CONTINUOUS
 62
     7
100
AcDbLine
 10
1405.150577
 20
534.19677
 30
0.0
 11
1409.150997
 21
534.19677
 31
0.0
  0
LINE
  5
379
100
AcDbEntity
  8
2
  6
CONTINUOUS
 62
     7
100
AcDbLine
 10
1402.47523
 20
526.19663
 30
0.0
 11
1409.150997
 21
526.19663
 31
0.0
  0
LINE
  5
37A
100
AcDbEntity
  8
2
  6
CONTINUOUS
 62
     7
100
AcDbLine
 10
1415.826063
 20
526.19663
 30
0.0
 11
1409.150997
 21
526.19663
 31
0.0
  0
LINE
  5
37B
100
AcDbEntity
  8
2
  6
CONTINUOUS
 62
     7
100
AcDbLine
 10
1401.150857
 20
522.496504
 30
0.0
 11
1409.150997
 21
522.496504
 31
0.0
  0
LINE
  5
37C
100
AcDbEntity
  8
2
  6
CONTINUOUS
 62
     7
100
AcDbLine
 10
1417.150437
 20
522.496504
 30
0.0
 11
1409.150997
 21
522.496504
 31
0.0
  0
LINE
  5
37D
100
AcDbEntity
  8
2
  6
CONTINUOUS
 62
     7
100
AcDbLine
 10
1400.151277
 20
504.497064
 30
0.0
 11
1409.150997
 21
504.497064
 31
0.0
  0
LINE
  5
37E
100
AcDbEntity
  8
2
  6
CONTINUOUS
 62
     7
100
AcDbLine
 10
1418.150717
 20
504.497064
 30
0.0
 11
1409.150997
 21
504.497064
 31
0.0
  0
LINE
  5
37F
100
AcDbEntity
  8
2
  6
CONTINUOUS
 62
     7
100
AcDbLine
 10
1400.151277
 20
521.496924
 30
0.0
 11
1400.151277
 21
504.497064
 31
0.0
  0
LINE
  5
380
100
AcDbEntity
  8
2
  6
CONTINUOUS
 62
     7
100
AcDbLine
 10
1418.150717
 20
521.496924
 30
0.0
 11
1418.150717
 21
504.497064
 31
0.0
  0
LINE
  5
381
100
AcDbEntity
  8
2
  6
CONTINUOUS
 62
     7
100
AcDbLine
 10
1415.729278
 20
522.496504
 30
0.0
 11
1415.826063
 21
526.19663
 31
0.0
  0
LINE
  5
382
100
AcDbEntity
  8
2
  6
CONTINUOUS
 62
     7
100
AcDbLine
 10
1402.572309
 20
522.496504
 30
0.0
 11
1402.47523
 21
526.19663
 31
0.0
  0
LINE
  5
383
100
AcDbEntity
  8
2
  6
CONTINUOUS
 62
     7
100
AcDbLine
 10
710.076819
 20
903.470201
 30
0.0
 11
710.076819
 21
900.470201
 31
0.0
  0
LINE
  5
384
100
AcDbEntity
  8
2
  6
CONTINUOUS
 62
     7
100
AcDbLine
 10
706.035497
 20
903.470201
 30
0.0
 11
706.035497
 21
900.470201
 31
0.0
  0
LINE
  5
385
100
AcDbEntity
  8
2
  6
CONTINUOUS
 62
     7
100
AcDbLine
 10
704.055997
 20
903.470201
 30
0.0
 11
712.055997
 21
903.470201
 31
0.0
  0
LINE
  5
386
100
AcDbEntity
  8
2
  6
CONTINUOUS
 62
     7
100
AcDbLine
 10
708.50734
 20
904.470201
 30
0.0
 11
707.563832
 21
903.470201
 31
0.0
  0
LINE
  5
387
100
AcDbEntity
  8
2
  6
CONTINUOUS
 62
     7
100
AcDbLine
 10
701.055997
 20
906.470201
 30
0.0
 11
701.055997
 21
904.470201
 31
0.0
  0
LINE
  5
388
100
AcDbEntity
  8
2
  6
CONTINUOUS
 62
     7
100
AcDbLine
 10
701.055997
 20
904.470201
 30
0.0
 11
715.055997
 21
904.470201
 31
0.0
  0
LINE
  5
389
100
AcDbEntity
  8
2
  6
CONTINUOUS
 62
     7
100
AcDbLine
 10
715.055997
 20
904.470201
 30
0.0
 11
715.055997
 21
906.470201
 31
0.0
  0
LINE
  5
38A
100
AcDbEntity
  8
2
  6
CONTINUOUS
 62
     7
100
AcDbLine
 10
701.055997
 20
906.470201
 30
0.0
 11
710.055997
 21
906.470201
 31
0.0
  0
LINE
  5
38B
100
AcDbEntity
  8
2
  6
CONTINUOUS
 62
     7
100
AcDbLine
 10
710.055997
 20
906.470201
 30
0.0
 11
710.055997
 21
907.943452
 31
0.0
  0
LINE
  5
38C
100
AcDbEntity
  8
2
  6
CONTINUOUS
 62
     7
100
AcDbLine
 10
710.055997
 20
907.943452
 30
0.0
 11
715.055997
 21
907.943452
 31
0.0
  0
LINE
  5
38D
100
AcDbEntity
  8
2
  6
CONTINUOUS
 62
     7
100
AcDbLine
 10
715.055997
 20
907.943452
 30
0.0
 11
715.055997
 21
906.470201
 31
0.0
  0
LINE
  5
38E
100
AcDbEntity
  8
2
  6
CONTINUOUS
 62
     7
100
AcDbLine
 10
710.055997
 20
906.470201
 30
0.0
 11
710.055997
 21
904.470201
 31
0.0
  0
LINE
  5
38F
100
AcDbEntity
  8
2
  6
CONTINUOUS
 62
     7
100
AcDbLine
 10
698.055997
 20
908.620201
 30
0.0
 11
698.055997
 21
906.970201
 31
0.0
  0
LINE
  5
390
100
AcDbEntity
  8
2
  6
CONTINUOUS
 62
     7
100
AcDbLine
 10
698.055997
 20
906.970201
 30
0.0
 11
710.055997
 21
906.970201
 31
0.0
  0
LINE
  5
391
100
AcDbEntity
  8
2
  6
CONTINUOUS
 62
     7
100
AcDbLine
 10
718.055997
 20
908.620201
 30
0.0
 11
718.055997
 21
906.970201
 31
0.0
  0
LINE
  5
392
100
AcDbEntity
  8
2
  6
CONTINUOUS
 62
     7
100
AcDbLine
 10
718.055997
 20
906.970201
 30
0.0
 11
715.055997
 21
906.970201
 31
0.0
  0
LINE
  5
393
100
AcDbEntity
  8
2
  6
CONTINUOUS
 62
     7
100
AcDbLine
 10
702.468892
 20
906.970201
 30
0.0
 11
702.468892
 21
906.470201
 31
0.0
  0
LINE
  5
394
100
AcDbEntity
  8
2
  6
CONTINUOUS
 62
     7
100
AcDbLine
 10
715.055997
 20
904.470201
 30
0.0
 11
715.055997
 21
899.783815
 31
0.0
  0
ARC
  5
395
100
AcDbEntity
  8
2
  6
CONTINUOUS
 62
     7
100
AcDbCircle
 10
714.055997
 20
899.783815
 30
0.0
 40
1.0
100
AcDbArc
 50
-90.0
 51
0.0
  0
LINE
  5
396
100
AcDbEntity
  8
2
  6
CONTINUOUS
 62
     7
100
AcDbLine
 10
701.055997
 20
904.470201
 30
0.0
 11
701.055997
 21
899.783815
 31
0.0
  0
LINE
  5
397
100
AcDbEntity
  8
2
  6
CONTINUOUS
 62
     7
100
AcDbLine
 10
702.055997
 20
898.783815
 30
0.0
 11
714.055997
 21
898.783815
 31
0.0
  0
ARC
  5
398
100
AcDbEntity
  8
2
  6
CONTINUOUS
 62
     7
100
AcDbCircle
 10
702.055997
 20
899.783815
 30
0.0
 40
1.0
100
AcDbArc
 50
180.0
 51
-90.0
  0
ARC
  5
399
100
AcDbEntity
  8
2
  6
CONTINUOUS
 62
     7
100
AcDbCircle
 10
706.200521
 20
897.196608
 30
0.0
 40
9.939362
100
AcDbArc
 50
7.449198
 51
27.007116
  0
ARC
  5
39A
100
AcDbEntity
  8
2
  6
CONTINUOUS
 62
     7
100
AcDbCircle
 10
709.911473
 20
897.196608
 30
0.0
 40
9.939362
100
AcDbArc
 50
152.992884
 51
172.550802
  0
LINE
  5
39B
100
AcDbEntity
  8
2
  6
CONTINUOUS
 62
     7
100
AcDbLine
 10
716.055997
 20
898.485217
 30
0.0
 11
716.055997
 21
886.774487
 31
0.0
  0
ARC
  5
39C
100
AcDbEntity
  8
2
  6
CONTINUOUS
 62
     7
100
AcDbCircle
 10
713.930997
 20
884.876451
 30
0.0
 40
2.65625
100
AcDbArc
 50
-64.942384
 51
31.273298
  0
ARC
  5
39D
100
AcDbEntity
  8
2
  6
CONTINUOUS
 62
     7
100
AcDbCircle
 10
717.055997
 20
886.774487
 30
0.0
 40
1.0
100
AcDbArc
 50
180.0
 51
-148.726702
  0
LINE
  5
39E
100
AcDbEntity
  8
2
  6
CONTINUOUS
 62
     7
100
AcDbLine
 10
708.055997
 20
882.470201
 30
0.0
 11
715.055997
 21
882.470201
 31
0.0
  0
LINE
  5
39F
100
AcDbEntity
  8
2
  6
CONTINUOUS
 62
     7
100
AcDbLine
 10
700.055997
 20
898.485217
 30
0.0
 11
700.055997
 21
886.774487
 31
0.0
  0
ARC
  5
3A0
100
AcDbEntity
  8
2
  6
CONTINUOUS
 62
     7
100
AcDbCircle
 10
702.180997
 20
884.876451
 30
0.0
 40
2.65625
100
AcDbArc
 50
148.726702
 51
-115.057616
  0
ARC
  5
3A1
100
AcDbEntity
  8
2
  6
CONTINUOUS
 62
     7
100
AcDbCircle
 10
699.055997
 20
886.774487
 30
0.0
 40
1.0
100
AcDbArc
 50
-31.273298
 51
0.0
  0
LINE
  5
3A2
100
AcDbEntity
  8
2
  6
CONTINUOUS
 62
     7
100
AcDbLine
 10
708.055997
 20
882.470201
 30
0.0
 11
701.055997
 21
882.470201
 31
0.0
  0
LINE
  5
3A3
100
AcDbEntity
  8
2
  6
CONTINUOUS
 62
     7
100
AcDbLine
 10
704.055997
 20
904.470201
 30
0.0
 11
704.055997
 21
900.470201
 31
0.0
  0
LINE
  5
3A4
100
AcDbEntity
  8
2
  6
CONTINUOUS
 62
     7
100
AcDbLine
 10
704.055997
 20
900.470201
 30
0.0
 11
712.055997
 21
900.470201
 31
0.0
  0
LINE
  5
3A5
100
AcDbEntity
  8
2
  6
CONTINUOUS
 62
     7
100
AcDbLine
 10
712.055997
 20
900.470201
 30
0.0
 11
712.055997
 21
904.470201
 31
0.0
  0
LINE
  5
3A6
100
AcDbEntity
  8
2
  6
CONTINUOUS
 62
     7
100
AcDbLine
 10
712.055997
 20
904.470201
 30
0.0
 11
704.055997
 21
904.470201
 31
0.0
  0
LINE
  5
3A7
100
AcDbEntity
  8
2
  6
CONTINUOUS
 62
     7
100
AcDbLine
 10
905.055997
 20
871.970201
 30
0.0
 11
896.055997
 21
871.970201
 31
0.0
  0
LINE
  5
3A8
100
AcDbEntity
  8
2
  6
CONTINUOUS
 62
     7
100
AcDbLine
 10
894.055997
 20
873.970201
 30
0.0
 11
894.055997
 21
919.470201
 31
0.0
  0
LINE
  5
3A9
100
AcDbEntity
  8
2
  6
CONTINUOUS
 62
     7
100
AcDbLine
 10
890.055997
 20
901.620601
 30
0.0
 11
888.055997
 21
901.620601
 31
0.0
  0
LINE
  5
3AA
100
AcDbEntity
  8
2
  6
CONTINUOUS
 62
     7
100
AcDbLine
 10
888.055997
 20
901.620601
 30
0.0
 11
888.055997
 21
919.470201
 31
0.0
  0
LINE
  5
3AB
100
AcDbEntity
  8
2
  6
CONTINUOUS
 62
     7
100
AcDbLine
 10
888.055997
 20
903.619801
 30
0.0
 11
883.055997
 21
908.619801
 31
0.0
  0
LINE
  5
3AC
100
AcDbEntity
  8
2
  6
CONTINUOUS
 62
     7
100
AcDbLine
 10
883.055997
 20
919.470201
 30
0.0
 11
883.055997
 21
908.619801
 31
0.0
  0
LINE
  5
3AD
100
AcDbEntity
  8
2
  6
CONTINUOUS
 62
     7
100
AcDbLine
 10
907.055997
 20
919.470201
 30
0.0
 11
907.055997
 21
873.970201
 31
0.0
  0
ARC
  5
3AE
100
AcDbEntity
  8
2
  6
CONTINUOUS
 62
     7
100
AcDbCircle
 10
905.055997
 20
873.970201
 30
0.0
 40
2.0
100
AcDbArc
 50
-90.0
 51
0.0
  0
ARC
  5
3AF
100
AcDbEntity
  8
2
  6
CONTINUOUS
 62
     7
100
AcDbCircle
 10
896.055997
 20
873.970201
 30
0.0
 40
2.0
100
AcDbArc
 50
180.0
 51
-90.0
  0
ARC
  5
3B0
100
AcDbEntity
  8
2
  6
CONTINUOUS
 62
     7
100
AcDbCircle
 10
890.055997
 20
897.620601
 30
0.0
 40
4.0
100
AcDbArc
 50
0.0
 51
90.0
  0
LINE
  5
3B1
100
AcDbEntity
  8
2
  6
CONTINUOUS
 62
     7
100
AcDbLine
 10
890.055997
 20
937.319801
 30
0.0
 11
888.055997
 21
937.319801
 31
0.0
  0
LINE
  5
3B2
100
AcDbEntity
  8
2
  6
CONTINUOUS
 62
     7
100
AcDbLine
 10
888.055997
 20
937.319801
 30
0.0
 11
888.055997
 21
919.470201
 31
0.0
  0
LINE
  5
3B3
100
AcDbEntity
  8
2
  6
CONTINUOUS
 62
     7
100
AcDbLine
 10
888.055997
 20
935.319801
 30
0.0
 11
883.055997
 21
930.319801
 31
0.0
  0
ARC
  5
3B4
100
AcDbEntity
  8
2
  6
CONTINUOUS
 62
     7
100
AcDbCircle
 10
890.055997
 20
941.319801
 30
0.0
 40
4.0
100
AcDbArc
 50
-90.0
 51
0.0
  0
LINE
  5
3B5
100
AcDbEntity
  8
2
  6
CONTINUOUS
 62
     7
100
AcDbLine
 10
905.055997
 20
966.970201
 30
0.0
 11
896.055997
 21
966.970201
 31
0.0
  0
LINE
  5
3B6
100
AcDbEntity
  8
2
  6
CONTINUOUS
 62
     7
100
AcDbLine
 10
894.055997
 20
964.970201
 30
0.0
 11
894.055997
 21
919.470201
 31
0.0
  0
LINE
  5
3B7
100
AcDbEntity
  8
2
  6
CONTINUOUS
 62
     7
100
AcDbLine
 10
907.055997
 20
919.470201
 30
0.0
 11
907.055997
 21
964.970201
 31
0.0
  0
ARC
  5
3B8
100
AcDbEntity
  8
2
  6
CONTINUOUS
 62
     7
100
AcDbCircle
 10
905.055997
 20
964.970201
 30
0.0
 40
2.0
100
AcDbArc
 50
0.0
 51
90.0
  0
ARC
  5
3B9
100
AcDbEntity
  8
2
  6
CONTINUOUS
 62
     7
100
AcDbCircle
 10
896.055997
 20
964.970201
 30
0.0
 40
2.0
100
AcDbArc
 50
90.0
 51
180.0
  0
LINE
  5
3BA
100
AcDbEntity
  8
2
  6
CONTINUOUS
 62
     7
100
AcDbLine
 10
883.055997
 20
930.319801
 30
0.0
 11
883.055997
 21
919.470201
 31
0.0
  0
LINE
  5
3BB
100
AcDbEntity
  8
2
  6
CONTINUOUS
 62
     7
100
AcDbLine
 10
908.055997
 20
893.970201
 30
0.0
 11
907.055997
 21
893.970201
 31
0.0
  0
LINE
  5
3BC
100
AcDbEntity
  8
2
  6
CONTINUOUS
 62
     7
100
AcDbLine
 10
908.055997
 20
944.970201
 30
0.0
 11
907.055997
 21
944.970201
 31
0.0
  0
LINE
  5
3BD
100
AcDbEntity
  8
2
  6
CONTINUOUS
 62
     7
100
AcDbLine
 10
908.055997
 20
893.970201
 30
0.0
 11
908.055997
 21
919.470201
 31
0.0
  0
LINE
  5
3BE
100
AcDbEntity
  8
2
  6
CONTINUOUS
 62
     7
100
AcDbLine
 10
908.055997
 20
944.970201
 30
0.0
 11
908.055997
 21
919.470201
 31
0.0
  0
LINE
  5
3BF
100
AcDbEntity
  8
2
  6
CONTINUOUS
 62
     7
100
AcDbLine
 10
310.076819
 20
903.470201
 30
0.0
 11
310.076819
 21
900.470201
 31
0.0
  0
LINE
  5
3C0
100
AcDbEntity
  8
2
  6
CONTINUOUS
 62
     7
100
AcDbLine
 10
306.035497
 20
903.470201
 30
0.0
 11
306.035497
 21
900.470201
 31
0.0
  0
LINE
  5
3C1
100
AcDbEntity
  8
2
  6
CONTINUOUS
 62
     7
100
AcDbLine
 10
304.055997
 20
903.470201
 30
0.0
 11
312.055997
 21
903.470201
 31
0.0
  0
LINE
  5
3C2
100
AcDbEntity
  8
2
  6
CONTINUOUS
 62
     7
100
AcDbLine
 10
308.50734
 20
904.470201
 30
0.0
 11
307.563832
 21
903.470201
 31
0.0
  0
LINE
  5
3C3
100
AcDbEntity
  8
2
  6
CONTINUOUS
 62
     7
100
AcDbLine
 10
301.055997
 20
906.470201
 30
0.0
 11
301.055997
 21
904.470201
 31
0.0
  0
LINE
  5
3C4
100
AcDbEntity
  8
2
  6
CONTINUOUS
 62
     7
100
AcDbLine
 10
301.055997
 20
904.470201
 30
0.0
 11
315.055997
 21
904.470201
 31
0.0
  0
LINE
  5
3C5
100
AcDbEntity
  8
2
  6
CONTINUOUS
 62
     7
100
AcDbLine
 10
315.055997
 20
904.470201
 30
0.0
 11
315.055997
 21
906.470201
 31
0.0
  0
LINE
  5
3C6
100
AcDbEntity
  8
2
  6
CONTINUOUS
 62
     7
100
AcDbLine
 10
301.055997
 20
906.470201
 30
0.0
 11
310.055997
 21
906.470201
 31
0.0
  0
LINE
  5
3C7
100
AcDbEntity
  8
2
  6
CONTINUOUS
 62
     7
100
AcDbLine
 10
310.055997
 20
906.470201
 30
0.0
 11
310.055997
 21
907.943452
 31
0.0
  0
LINE
  5
3C8
100
AcDbEntity
  8
2
  6
CONTINUOUS
 62
     7
100
AcDbLine
 10
310.055997
 20
907.943452
 30
0.0
 11
315.055997
 21
907.943452
 31
0.0
  0
LINE
  5
3C9
100
AcDbEntity
  8
2
  6
CONTINUOUS
 62
     7
100
AcDbLine
 10
315.055997
 20
907.943452
 30
0.0
 11
315.055997
 21
906.470201
 31
0.0
  0
LINE
  5
3CA
100
AcDbEntity
  8
2
  6
CONTINUOUS
 62
     7
100
AcDbLine
 10
310.055997
 20
906.470201
 30
0.0
 11
310.055997
 21
904.470201
 31
0.0
  0
LINE
  5
3CB
100
AcDbEntity
  8
2
  6
CONTINUOUS
 62
     7
100
AcDbLine
 10
298.055997
 20
908.620201
 30
0.0
 11
298.055997
 21
906.970201
 31
0.0
  0
LINE
  5
3CC
100
AcDbEntity
  8
2
  6
CONTINUOUS
 62
     7
100
AcDbLine
 10
298.055997
 20
906.970201
 30
0.0
 11
310.055997
 21
906.970201
 31
0.0
  0
LINE
  5
3CD
100
AcDbEntity
  8
2
  6
CONTINUOUS
 62
     7
100
AcDbLine
 10
318.055997
 20
908.620201
 30
0.0
 11
318.055997
 21
906.970201
 31
0.0
  0
LINE
  5
3CE
100
AcDbEntity
  8
2
  6
CONTINUOUS
 62
     7
100
AcDbLine
 10
318.055997
 20
906.970201
 30
0.0
 11
315.055997
 21
906.970201
 31
0.0
  0
LINE
  5
3CF
100
AcDbEntity
  8
2
  6
CONTINUOUS
 62
     7
100
AcDbLine
 10
302.468892
 20
906.970201
 30
0.0
 11
302.468892
 21
906.470201
 31
0.0
  0
LINE
  5
3D0
100
AcDbEntity
  8
2
  6
CONTINUOUS
 62
     7
100
AcDbLine
 10
315.055997
 20
904.470201
 30
0.0
 11
315.055997
 21
899.783815
 31
0.0
  0
ARC
  5
3D1
100
AcDbEntity
  8
2
  6
CONTINUOUS
 62
     7
100
AcDbCircle
 10
314.055997
 20
899.783815
 30
0.0
 40
1.0
100
AcDbArc
 50
-90.0
 51
0.0
  0
LINE
  5
3D2
100
AcDbEntity
  8
2
  6
CONTINUOUS
 62
     7
100
AcDbLine
 10
301.055997
 20
904.470201
 30
0.0
 11
301.055997
 21
899.783815
 31
0.0
  0
LINE
  5
3D3
100
AcDbEntity
  8
2
  6
CONTINUOUS
 62
     7
100
AcDbLine
 10
302.055997
 20
898.783815
 30
0.0
 11
314.055997
 21
898.783815
 31
0.0
  0
ARC
  5
3D4
100
AcDbEntity
  8
2
  6
CONTINUOUS
 62
     7
100
AcDbCircle
 10
302.055997
 20
899.783815
 30
0.0
 40
1.0
100
AcDbArc
 50
180.0
 51
-90.0
  0
ARC
  5
3D5
100
AcDbEntity
  8
2
  6
CONTINUOUS
 62
     7
100
AcDbCircle
 10
306.200521
 20
897.196608
 30
0.0
 40
9.939362
100
AcDbArc
 50
7.449198
 51
27.007116
  0
ARC
  5
3D6
100
AcDbEntity
  8
2
  6
CONTINUOUS
 62
     7
100
AcDbCircle
 10
309.911473
 20
897.196608
 30
0.0
 40
9.939362
100
AcDbArc
 50
152.992884
 51
172.550802
  0
LINE
  5
3D7
100
AcDbEntity
  8
2
  6
CONTINUOUS
 62
     7
100
AcDbLine
 10
316.055997
 20
898.485217
 30
0.0
 11
316.055997
 21
886.774487
 31
0.0
  0
ARC
  5
3D8
100
AcDbEntity
  8
2
  6
CONTINUOUS
 62
     7
100
AcDbCircle
 10
313.930997
 20
884.876451
 30
0.0
 40
2.65625
100
AcDbArc
 50
-64.942384
 51
31.273298
  0
ARC
  5
3D9
100
AcDbEntity
  8
2
  6
CONTINUOUS
 62
     7
100
AcDbCircle
 10
317.055997
 20
886.774487
 30
0.0
 40
1.0
100
AcDbArc
 50
180.0
 51
-148.726702
  0
LINE
  5
3DA
100
AcDbEntity
  8
2
  6
CONTINUOUS
 62
     7
100
AcDbLine
 10
308.055997
 20
882.470201
 30
0.0
 11
315.055997
 21
882.470201
 31
0.0
  0
LINE
  5
3DB
100
AcDbEntity
  8
2
  6
CONTINUOUS
 62
     7
100
AcDbLine
 10
300.055997
 20
898.485217
 30
0.0
 11
300.055997
 21
886.774487
 31
0.0
  0
ARC
  5
3DC
100
AcDbEntity
  8
2
  6
CONTINUOUS
 62
     7
100
AcDbCircle
 10
302.180997
 20
884.876451
 30
0.0
 40
2.65625
100
AcDbArc
 50
148.726702
 51
-115.057616
  0
ARC
  5
3DD
100
AcDbEntity
  8
2
  6
CONTINUOUS
 62
     7
100
AcDbCircle
 10
299.055997
 20
886.774487
 30
0.0
 40
1.0
100
AcDbArc
 50
-31.273298
 51
0.0
  0
LINE
  5
3DE
100
AcDbEntity
  8
2
  6
CONTINUOUS
 62
     7
100
AcDbLine
 10
308.055997
 20
882.470201
 30
0.0
 11
301.055997
 21
882.470201
 31
0.0
  0
LINE
  5
3DF
100
AcDbEntity
  8
2
  6
CONTINUOUS
 62
     7
100
AcDbLine
 10
304.055997
 20
904.470201
 30
0.0
 11
304.055997
 21
900.470201
 31
0.0
  0
LINE
  5
3E0
100
AcDbEntity
  8
2
  6
CONTINUOUS
 62
     7
100
AcDbLine
 10
304.055997
 20
900.470201
 30
0.0
 11
312.055997
 21
900.470201
 31
0.0
  0
LINE
  5
3E1
100
AcDbEntity
  8
2
  6
CONTINUOUS
 62
     7
100
AcDbLine
 10
312.055997
 20
900.470201
 30
0.0
 11
312.055997
 21
904.470201
 31
0.0
  0
LINE
  5
3E2
100
AcDbEntity
  8
2
  6
CONTINUOUS
 62
     7
100
AcDbLine
 10
312.055997
 20
904.470201
 30
0.0
 11
304.055997
 21
904.470201
 31
0.0
  0
LINE
  5
3E3
100
AcDbEntity
  8
2
  6
CONTINUOUS
 62
     7
100
AcDbLine
 10
133.055197
 20
930.320601
 30
0.0
 11
133.055197
 21
908.619801
 31
0.0
  0
LINE
  5
3E4
100
AcDbEntity
  8
2
  6
CONTINUOUS
 62
     7
100
AcDbLine
 10
108.055997
 20
944.970201
 30
0.0
 11
108.055997
 21
893.970201
 31
0.0
  0
LINE
  5
3E5
100
AcDbEntity
  8
2
  6
CONTINUOUS
 62
     7
100
AcDbLine
 10
108.055997
 20
893.970201
 30
0.0
 11
109.055997
 21
893.970201
 31
0.0
  0
LINE
  5
3E6
100
AcDbEntity
  8
2
  6
CONTINUOUS
 62
     7
100
AcDbLine
 10
111.055997
 20
871.970201
 30
0.0
 11
120.055997
 21
871.970201
 31
0.0
  0
LINE
  5
3E7
100
AcDbEntity
  8
2
  6
CONTINUOUS
 62
     7
100
AcDbLine
 10
122.055997
 20
873.970201
 30
0.0
 11
122.055997
 21
919.470201
 31
0.0
  0
LINE
  5
3E8
100
AcDbEntity
  8
2
  6
CONTINUOUS
 62
     7
100
AcDbLine
 10
126.055997
 20
901.620601
 30
0.0
 11
128.055997
 21
901.620601
 31
0.0
  0
LINE
  5
3E9
100
AcDbEntity
  8
2
  6
CONTINUOUS
 62
     7
100
AcDbLine
 10
128.055997
 20
901.620601
 30
0.0
 11
128.055997
 21
919.470201
 31
0.0
  0
LINE
  5
3EA
100
AcDbEntity
  8
2
  6
CONTINUOUS
 62
     7
100
AcDbLine
 10
128.055997
 20
903.619801
 30
0.0
 11
133.055997
 21
908.619801
 31
0.0
  0
LINE
  5
3EB
100
AcDbEntity
  8
2
  6
CONTINUOUS
 62
     7
100
AcDbLine
 10
109.055997
 20
919.470201
 30
0.0
 11
109.055997
 21
873.970201
 31
0.0
  0
ARC
  5
3EC
100
AcDbEntity
  8
2
  6
CONTINUOUS
 62
     7
100
AcDbCircle
 10
111.055997
 20
873.970201
 30
0.0
 40
2.0
100
AcDbArc
 50
180.0
 51
-90.0
  0
ARC
  5
3ED
100
AcDbEntity
  8
2
  6
CONTINUOUS
 62
     7
100
AcDbCircle
 10
120.055997
 20
873.970201
 30
0.0
 40
2.0
100
AcDbArc
 50
-90.0
 51
0.0
  0
ARC
  5
3EE
100
AcDbEntity
  8
2
  6
CONTINUOUS
 62
     7
100
AcDbCircle
 10
126.055997
 20
897.620601
 30
0.0
 40
4.0
100
AcDbArc
 50
90.0
 51
180.0
  0
LINE
  5
3EF
100
AcDbEntity
  8
2
  6
CONTINUOUS
 62
     7
100
AcDbLine
 10
108.055997
 20
944.970201
 30
0.0
 11
109.055997
 21
944.970201
 31
0.0
  0
ARC
  5
3F0
100
AcDbEntity
  8
2
  6
CONTINUOUS
 62
     7
100
AcDbCircle
 10
111.055997
 20
964.970201
 30
0.0
 40
2.0
100
AcDbArc
 50
90.0
 51
180.0
  0
LINE
  5
3F1
100
AcDbEntity
  8
2
  6
CONTINUOUS
 62
     7
100
AcDbLine
 10
111.055997
 20
966.970201
 30
0.0
 11
120.055997
 21
966.970201
 31
0.0
  0
LINE
  5
3F2
100
AcDbEntity
  8
2
  6
CONTINUOUS
 62
     7
100
AcDbLine
 10
122.055997
 20
964.970201
 30
0.0
 11
122.055997
 21
919.470201
 31
0.0
  0
LINE
  5
3F3
100
AcDbEntity
  8
2
  6
CONTINUOUS
 62
     7
100
AcDbLine
 10
126.055997
 20
937.319801
 30
0.0
 11
128.055997
 21
937.319801
 31
0.0
  0
LINE
  5
3F4
100
AcDbEntity
  8
2
  6
CONTINUOUS
 62
     7
100
AcDbLine
 10
128.055997
 20
937.319801
 30
0.0
 11
128.055997
 21
919.470201
 31
0.0
  0
LINE
  5
3F5
100
AcDbEntity
  8
2
  6
CONTINUOUS
 62
     7
100
AcDbLine
 10
128.055997
 20
935.319801
 30
0.0
 11
133.055997
 21
930.319801
 31
0.0
  0
ARC
  5
3F6
100
AcDbEntity
  8
2
  6
CONTINUOUS
 62
     7
100
AcDbCircle
 10
111.055997
 20
964.970201
 30
0.0
 40
2.0
100
AcDbArc
 50
90.0
 51
180.0
  0
ARC
  5
3F7
100
AcDbEntity
  8
2
  6
CONTINUOUS
 62
     7
100
AcDbCircle
 10
120.055997
 20
964.970201
 30
0.0
 40
2.0
100
AcDbArc
 50
0.0
 51
90.0
  0
ARC
  5
3F8
100
AcDbEntity
  8
2
  6
CONTINUOUS
 62
     7
100
AcDbCircle
 10
126.055997
 20
941.319801
 30
0.0
 40
4.0
100
AcDbArc
 50
180.0
 51
-90.0
  0
LINE
  5
3F9
100
AcDbEntity
  8
2
  6
CONTINUOUS
 62
     7
100
AcDbLine
 10
109.055997
 20
964.970201
 30
0.0
 11
109.055997
 21
919.470201
 31
0.0
  0
CIRCLE
  5
3FA
100
AcDbEntity
  8
2
  6
CONTINUOUS
 62
     7
100
AcDbCircle
 10
508.055997
 20
919.470201
 30
0.0
 40
9.0
  0
CIRCLE
  5
3FB
100
AcDbEntity
  8
2
  6
CONTINUOUS
 62
     7
100
AcDbCircle
 10
508.055997
 20
919.470201
 30
0.0
 40
6.68
  0
LINE
  5
3FC
100
AcDbEntity
  8
2
  6
CONTINUOUS
 62
     7
100
AcDbLine
 10
512.555997
 20
923.970201
 30
0.0
 11
512.555997
 21
914.970201
 31
0.0
  0
LINE
  5
3FD
100
AcDbEntity
  8
2
  6
CONTINUOUS
 62
     7
100
AcDbLine
 10
512.555997
 20
914.970201
 30
0.0
 11
503.555997
 21
914.970201
 31
0.0
  0
LINE
  5
3FE
100
AcDbEntity
  8
2
  6
CONTINUOUS
 62
     7
100
AcDbLine
 10
503.555997
 20
914.970201
 30
0.0
 11
503.555997
 21
923.970201
 31
0.0
  0
LINE
  5
3FF
100
AcDbEntity
  8
2
  6
CONTINUOUS
 62
     7
100
AcDbLine
 10
503.555997
 20
923.970201
 30
0.0
 11
512.555997
 21
923.970201
 31
0.0
  0
LINE
  5
400
100
AcDbEntity
  8
2
  6
CONTINUOUS
 62
     7
100
AcDbLine
 10
133.055197
 20
930.320201
 30
0.0
 11
883.055997
 21
930.320201
 31
0.0
  0
LINE
  5
401
100
AcDbEntity
  8
2
  6
CONTINUOUS
 62
     7
100
AcDbLine
 10
133.055197
 20
908.620201
 30
0.0
 11
883.055997
 21
908.620201
 31
0.0
  0
LINE
  5
402
100
AcDbEntity
  8
1
  6
CENTER
 62
     7
100
AcDbLine
 10
920.465334
 20
919.470201
 30
0.0
 11
101.995611
 21
919.470201
 31
0.0
  0
ENDSEC
  0
SECTION
  2
OBJECTS
  0
DICTIONARY
  5
19
100
AcDbDictionary
  3
ACAD_GROUP
350
1A
  3
ACAD_MLINESTYLE
350
1B
  0
DICTIONARY
  5
1A
102
{ACAD_REACTORS
330
19
102
}
100
AcDbDictionary
  0
DICTIONARY
  5
1B
102
{ACAD_REACTORS
330
19
102
}
100
AcDbDictionary
  3
STANDARD
350
1C
  0
MLINESTYLE
  5
1C
102
{ACAD_REACTORS
330
1B
102
}
100
AcDbMlineStyle
  2
STANDARD
 70
     0
  3

 62
     0
 51
90.0
 52
90.0
 71
     2
 49
0.5
 62
   256
  6
BYLAYER
 49
-0.5
 62
   256
  6
BYLAYER
  0
ENDSEC
  0
EOF
