  0
SECTION
  2
HEADER
  9
$ACADVER
  1
AC1014
  9
$ACADMAINTVER
 70
     0
  9
$DWGCODEPAGE
  3
DOS932
  9
$INSBASE
 10
0.0
 20
0.0
 30
0.0
  9
$EXTMIN
 10
0.0
 20
0.0
 30
0.0
  9
$EXTMAX
 10
2970.0
 20
2100.0
 30
0.0
  9
$LIMMIN
 10
0.0
 20
0.0
  9
$LIMMAX
 10
2970.0
 20
2100.0
  9
$ORTHOMODE
 70
     0
  9
$REGENMODE
 70
     1
  9
$FILLMODE
 70
     1
  9
$QTEXTMODE
 70
     0
  9
$MIRRTEXT
 70
     1
  9
$DRAGMODE
 70
     2
  9
$LTSCALE
 40
2.5
  9
$OSMODE
 70
     0
  9
$ATTMODE
 70
     1
  9
$TEXTSIZE
 40
34.0
  9
$TRACEWID
 40
0.05
  9
$TEXTSTYLE
  7
STANDARD
  9
$CLAYER
  8
0
  9
$CELTYPE
  6
CONTINUOUS
  9
$CECOLOR
 62
   256
  9
$CELTSCALE
 40
1.0
  9
$DELOBJ
 70
     1
  9
$DISPSILH
 70
     0
  9
$DIMSCALE
 40
10.0
  9
$DIMASZ
 40
2.0
  9
$DIMEXO
 40
2.0
  9
$DIMDLI
 40
10.0
  9
$DIMRND
 40
0.0
  9
$DIMDLE
 40
0.0
  9
$DIMEXE
 40
2.0
  9
$DIMTP
 40
0.0
  9
$DIMTM
 40
0.0
  9
$DIMTXT
 40
4.0
  9
$DIMCEN
 40
0.09
  9
$DIMTSZ
 40
0.0
  9
$DIMTOL
 70
     0
  9
$DIMLIM
 70
     0
  9
$DIMTIH
 70
     0
  9
$DIMTOH
 70
     0
  9
$DIMSE1
 70
     0
  9
$DIMSE2
 70
     0
  9
$DIMTAD
 70
     3
  9
$DIMZIN
 70
     0
  9
$DIMBLK
  1

  9
$DIMASO
 70
     1
  9
$DIMSHO
 70
     1
  9
$DIMPOST
  1

  9
$DIMAPOST
  1

  9
$DIMALT
 70
     0
  9
$DIMALTD
 70
     2
  9
$DIMALTF
 40
25.4
  9
$DIMLFAC
 40
1.0
  9
$DIMTOFL
 70
     1
  9
$DIMTVP
 40
0.7
  9
$DIMTIX
 70
     0
  9
$DIMSOXD
 70
     0
  9
$DIMSAH
 70
     0
  9
$DIMBLK1
  1

  9
$DIMBLK2
  1

  9
$DIMSTYLE
  2
STANDARD
  9
$DIMCLRD
 70
     0
  9
$DIMCLRE
 70
     0
  9
$DIMCLRT
 70
     0
  9
$DIMTFAC
 40
0.5
  9
$DIMGAP
 40
0.0
  9
$DIMJUST
 70
     0
  9
$DIMSD1
 70
     0
  9
$DIMSD2
 70
     0
  9
$DIMTOLJ
 70
     1
  9
$DIMTZIN
 70
     0
  9
$DIMALTZ
 70
     0
  9
$DIMALTTZ
 70
     0
  9
$DIMFIT
 70
     3
  9
$DIMUPT
 70
     0
  9
$DIMUNIT
 70
     2
  9
$DIMDEC
 70
     2
  9
$DIMTDEC
 70
     4
  9
$DIMALTU
 70
     2
  9
$DIMALTTD
 70
     2
  9
$DIMTXSTY
  7
STANDARD
  9
$DIMAUNIT
 70
     0
  9
$LUNITS
 70
     2
  9
$LUPREC
 70
     4
  9
$SKETCHINC
 40
0.1
  9
$FILLETRAD
 40
0.0
  9
$AUNITS
 70
     0
  9
$AUPREC
 70
     0
  9
$MENU
  1
acad
  9
$ELEVATION
 40
0.0
  9
$PELEVATION
 40
0.0
  9
$THICKNESS
 40
0.0
  9
$LIMCHECK
 70
     0
  9
$BLIPMODE
 70
     1
  9
$CHAMFERA
 40
0.0
  9
$CHAMFERB
 40
0.0
  9
$CHAMFERC
 40
0.0
  9
$CHAMFERD
 40
0.0
  9
$SKPOLY
 70
     0
  9
$TDCREATE
 40
2453951.939386574
  9
$TDUPDATE
 40
2453951.939386574
  9
$TDINDWG
 40
0.0000000000
  9
$TDUSRTIMER
 40
0.0000000000
  9
$USRTIMER
 70
     1
  9
$ANGBASE
 50
0.0
  9
$ANGDIR
 70
     0
  9
$PDMODE
 70
     0
  9
$PDSIZE
 40
0.0
  9
$PLINEWID
 40
0.0
  9
$COORDS
 70
     0
  9
$SPLFRAME
 70
     0
  9
$SPLINETYPE
 70
     6
  9
$SPLINESEGS
 70
     8
  9
$ATTDIA
 70
     0
  9
$ATTREQ
 70
     1
  9
$HANDLING
 70
     1
  9
$HANDSEED
  5
722
  9
$SURFTAB1
 70
     6
  9
$SURFTAB2
 70
     6
  9
$SURFTYPE
 70
     6
  9
$SURFU
 70
     6
  9
$SURFV
 70
     6
  9
$UCSNAME
  2

  9
$UCSORG
 10
0.0
 20
0.0
 30
0.0
  9
$UCSXDIR
 10
1.0
 20
0.0
 30
0.0
  9
$UCSYDIR
 10
0.0
 20
1.0
 30
0.0
  9
$PUCSNAME
  2

  9
$PUCSORG
 10
0.0
 20
0.0
 30
0.0
  9
$PUCSXDIR
 10
1.0
 20
0.0
 30
0.0
  9
$PUCSYDIR
 10
0.0
 20
1.0
 30
0.0
  9
$USERI1
 70
     0
  9
$USERI2
 70
     0
  9
$USERI3
 70
     0
  9
$USERI4
 70
     0
  9
$USERI5
 70
     0
  9
$USERR1
 40
0.0
  9
$USERR2
 40
0.0
  9
$USERR3
 40
0.0
  9
$USERR4
 40
0.0
  9
$USERR5
 40
0.0
  9
$WORLDVIEW
 70
     1
  9
$SHADEDGE
 70
     3
  9
$SHADEDIF
 70
    70
  9
$TILEMODE
 70
     1
  9
$MAXACTVP
 70
    16
  9
$PINSBASE
 10
0.0
 20
0.0
 30
0.0
  9
$PLIMCHECK
 70
     0
  9
$PEXTMIN
 10
0.0
 20
0.0
 30
0.0
  9
$PEXTMAX
 10
297.0
 20
210.0
 30
0.0
  9
$PLIMMIN
 10
0.0
 20
0.0
  9
$PLIMMAX
 10
297.0
 20
210.0
  9
$UNITMODE
 70
     0
  9
$VISRETAIN
 70
     0
  9
$PLINEGEN
 70
     1
  9
$PSLTSCALE
 70
     0
  9
$TREEDEPTH
 70
  3020
  9
$PICKSTYLE
 70
     1
  9
$CMLSTYLE
  2
STANDARD
  9
$CMLJUST
 70
     0
  9
$CMLSCALE
 40
1.0
  9
$PROXYGRAPHICS
 70
     0
  9
$MEASUREMENT
 70
     0
  0
ENDSEC
  0
SECTION
  2
CLASSES
  0
CLASS
  1
LWPOLYLINE
  2
AcDbPolyline
  3
"AutoCAD"
 90
        0
280
     0
281
     1
  0
CLASS
  1
IMAGE
  2
AcDbRasterImage
  3
ISM
 90
      127
280
     0
281
     1
  0
CLASS
  1
OLE2FRAME
  2
AcDbOle2Frame
  3
""
 90
        0
280
     0
281
     1
  0
CLASS
  1
HATCH
  2
AcDbHatch
  3
"ACAD_SEDONA"
 90
        0
280
     0
281
     1
  0
CLASS
  1
DICTIONARYVAR
  2
AcDbDictionaryVar
  3
"AutoCAD"
 90
        0
280
     0
281
     0
  0
CLASS
  1
RASTERVARIABLES
  2
AcDbRasterVariables
  3
ISM
 90
        0
280
     0
281
     0
  0
CLASS
  1
IMAGEDEF
  2
AcDbRasterImageDef
  3
ISM
 90
        0
280
     0
281
     0
  0
CLASS
  1
IMAGEDEF_REACTOR
  2
AcDbRasterImageDefReactor
  3
ISM
 90
        1
280
     0
281
     0
  0
CLASS
  1
IDBUFFER
  2
AcDbIdBuffer
  3
"Acad"
 90
        0
280
     0
281
     0
  0
CLASS
  1
SPATIAL_FILTER
  2
AcDbSpatialFilter
  3
"Acad"
 90
        0
280
     0
281
     0
  0
CLASS
  1
XRECORD
  2
AcDbXrecord
  3
"<Built In>"
 90
        0
280
     0
281
     0
  0
CLASS
  1
SORTENTSTABLE
  2
AcDbSortentsTable
  3
"AutoCAD"
 90
        0
280
     0
281
     0
  0
CLASS
  1
LAYER_INDEX
  2
AcDbLayerIndex
  3
"Acad"
 90
        0
280
     0
281
     0
  0
CLASS
  1
SPATIAL_INDEX
  2
AcDbSpatialIndex
  3
"Acad"
 90
        0
280
     0
281
     0
  0
CLASS
  1
OBJECT_PTR
  2
CAseDLPNTableRecord
  3
"ASE-LPNTableRecord"
 90
        1
280
     0
281
     0
  0
CLASS
  1
LAYOUT
  2
AcDbLayout
  3
"AutoCAD 2000"
 90
        1
280
     0
281
     0
  0
CLASS
  1
PLOTSETTINGS
  2
AcDbPlotSettings
  3
"AutoCAD 2000"
 90
        1
280
     0
281
     0
  0
CLASS
  1
ACDBDICTIONARYWDFLT
  2
AcDbDictionaryWithDefault
  3
"AutoCAD 2000"
 90
        1
280
     0
281
     0
  0
CLASS
  1
ACDBPLACEHOLDER
  2
AcDbPlaceHolder
  3
"AutoCAD 2000"
 90
        1
280
     0
281
     0
  0
CLASS
  1
VBA_PROJECT
  2
AcDbVbaProject
  3
"acadvba"
 90
        1
280
     0
281
     0
  0
CLASS
  1
WIPEOUT
  2
AcDbWipeout
  3
WipeOut|AutoCAD Express Tool|expresstools@autodesk.com
 90
      127
280
     0
281
     1
  0
CLASS
  1
WIPEOUTVARIABLES
  2
AcDbWipeoutVariables
  3
WipeOut|AutoCAD Express Tool|expresstools@autodesk.com
 90
        0
280
     0
281
     0
  0
CLASS
  1
RTEXT
  2
RText
  3
RText|AutoCAD Express Tool|expresstools@autodesk.com
 90
        0
280
     0
281
     1
  0
CLASS
  1
ARCALIGNEDTEXT
  2
AcDbArcAlignedText
  3
ATEXT|AutoCAD Express Tool|expresstools@autodesk.com
 90
        0
280
     0
281
     1
  0
ENDSEC
  0
SECTION
  2
TABLES
  0
TABLE
  2
VPORT
  5
7
100
AcDbSymbolTable
 70
     1
  0
VPORT
  5
15
100
AcDbSymbolTableRecord
100
AcDbViewportTableRecord
  2
*ACTIVE
 70
     0
 10
0.0
 20
0.0
 11
1.0
 21
1.0
 12
6.591288
 22
4.579184
 13
0.0
 23
0.0
 14
1.0
 24
1.0
 15
0.0
 25
0.0
 16
0.0
 26
0.0
 36
1.0
 17
0.0
 27
0.0
 37
0.0
 40
9.158369
 41
0.688564
 42
50.0
 43
0.0
 44
0.0
 50
0.0
 51
0.0
 71
     0
 72
   100
 73
     1
 74
     1
 75
     0
 76
     0
 77
     0
 78
     0
  0
ENDTAB
  0
TABLE
  2
LTYPE
  5
4
100
AcDbSymbolTable
 70
     9
  0
LTYPE
  5
11
100
AcDbSymbolTableRecord
100
AcDbLinetypeTableRecord
  2
BYBLOCK
 70
    64
  3

 72
    65
 73
     0
 40
0.0
  0
LTYPE
  5
12
100
AcDbSymbolTableRecord
100
AcDbLinetypeTableRecord
  2
BYLAYER
 70
    64
  3

 72
    65
 73
     0
 40
0.0
  0
LTYPE
  5
13
100
AcDbSymbolTableRecord
100
AcDbLinetypeTableRecord
  2
CONTINUOUS
 70
    64
  3
Solid line
 72
    65
 73
     0
 40
0.0
  0
LTYPE
  5
1E
100
AcDbSymbolTableRecord
100
AcDbLinetypeTableRecord
  2
HIDDEN
 70
    64
  3
- - - - - - - - 
 72
    65
 73
     2
 40
12.6
 49
8.4
 74
     0
 49
-4.2
 74
     0
  0
LTYPE
  5
1F
100
AcDbSymbolTableRecord
100
AcDbLinetypeTableRecord
  2
DOT
 70
    64
  3
･ ･ ･ ･ ･ ･ ･ ･ 
 72
    65
 73
     2
 40
8.0
 49
6.0
 74
     0
 49
-2.0
 74
     0
  0
LTYPE
  5
20
100
AcDbSymbolTableRecord
100
AcDbLinetypeTableRecord
  2
CENTER
 70
    64
  3
- ･ - ･ - ･ - ･ 
 72
    65
 73
     4
 40
50.5
 49
30.0
 74
     0
 49
-9.0
 74
     0
 49
2.5
 74
     0
 49
-9.0
 74
     0
  0
LTYPE
  5
21
100
AcDbSymbolTableRecord
100
AcDbLinetypeTableRecord
  2
PHANTOM
 70
    64
  3
- ･･ - ･･ - ･･ - ･･ 
 72
    65
 73
     6
 40
58.0
 49
30.0
 74
     0
 49
-9.0
 74
     0
 49
2.5
 74
     0
 49
-5.0
 74
     0
 49
2.5
 74
     0
 49
-9.0
 74
     0
  0
LTYPE
  5
22
100
AcDbSymbolTableRecord
100
AcDbLinetypeTableRecord
  2
ACAD_ISO06W100
 70
    64
  3
____ ... ____ ... ____
 72
    65
 73
     8
 40
37.5
 49
24.0
 74
     0
 49
-3.0
 74
     0
 49
0.5
 74
     0
 49
-3.0
 74
     0
 49
0.5
 74
     0
 49
-3.0
 74
     0
 49
0.5
 74
     0
 49
-3.0
 74
     0
  0
LTYPE
  5
23
100
AcDbSymbolTableRecord
100
AcDbLinetypeTableRecord
  2
ACAD_ISO14W100
 70
    64
  3
__ . . . __ . . . __ . . . 
 72
    65
 73
     8
 40
25.5
 49
12.0
 74
     0
 49
-3.0
 74
     0
 49
0.5
 74
     0
 49
-3.0
 74
     0
 49
0.5
 74
     0
 49
-3.0
 74
     0
 49
0.5
 74
     0
 49
-3.0
 74
     0
  0
ENDTAB
  0
TABLE
  2
LAYER
  5
2
100
AcDbSymbolTable
 70
    23
  0
LAYER
  5
14
100
AcDbSymbolTableRecord
100
AcDbLayerTableRecord
  2
0
 70
     0
 62
     7
  6
CONTINUOUS
  0
LAYER
  5
24
100
AcDbSymbolTableRecord
100
AcDbLayerTableRecord
  2
1
 70
     0
 62
     7
  6
CONTINUOUS
  0
LAYER
  5
25
100
AcDbSymbolTableRecord
100
AcDbLayerTableRecord
  2
2
 70
     0
 62
     7
  6
CONTINUOUS
  0
LAYER
  5
26
100
AcDbSymbolTableRecord
100
AcDbLayerTableRecord
  2
3
 70
     0
 62
   214
  6
CONTINUOUS
  0
LAYER
  5
27
100
AcDbSymbolTableRecord
100
AcDbLayerTableRecord
  2
4
 70
     0
 62
    54
  6
CONTINUOUS
  0
LAYER
  5
28
100
AcDbSymbolTableRecord
100
AcDbLayerTableRecord
  2
5
 70
     0
 62
    94
  6
CONTINUOUS
  0
LAYER
  5
29
100
AcDbSymbolTableRecord
100
AcDbLayerTableRecord
  2
6
 70
     0
 62
    14
  6
CONTINUOUS
  0
LAYER
  5
2A
100
AcDbSymbolTableRecord
100
AcDbLayerTableRecord
  2
7
 70
     0
 62
     4
  6
CONTINUOUS
  0
LAYER
  5
2B
100
AcDbSymbolTableRecord
100
AcDbLayerTableRecord
  2
8
 70
     0
 62
     6
  6
CONTINUOUS
  0
LAYER
  5
2C
100
AcDbSymbolTableRecord
100
AcDbLayerTableRecord
  2
9
 70
     0
 62
     2
  6
CONTINUOUS
  0
LAYER
  5
2D
100
AcDbSymbolTableRecord
100
AcDbLayerTableRecord
  2
10
 70
     0
 62
     3
  6
CONTINUOUS
  0
LAYER
  5
2E
100
AcDbSymbolTableRecord
100
AcDbLayerTableRecord
  2
11
 70
     0
 62
   251
  6
CONTINUOUS
  0
LAYER
  5
2F
100
AcDbSymbolTableRecord
100
AcDbLayerTableRecord
  2
12
 70
     0
 62
   136
  6
CONTINUOUS
  0
LAYER
  5
30
100
AcDbSymbolTableRecord
100
AcDbLayerTableRecord
  2
13
 70
     0
 62
   216
  6
CONTINUOUS
  0
LAYER
  5
31
100
AcDbSymbolTableRecord
100
AcDbLayerTableRecord
  2
14
 70
     0
 62
    56
  6
CONTINUOUS
  0
LAYER
  5
32
100
AcDbSymbolTableRecord
100
AcDbLayerTableRecord
  2
15
 70
     0
 62
    96
  6
CONTINUOUS
  0
LAYER
  5
33
100
AcDbSymbolTableRecord
100
AcDbLayerTableRecord
  2
16
 70
     0
 62
    16
  6
CONTINUOUS
  0
LAYER
  5
34
100
AcDbSymbolTableRecord
100
AcDbLayerTableRecord
  2
17
 70
     0
 62
   132
  6
CONTINUOUS
  0
LAYER
  5
35
100
AcDbSymbolTableRecord
100
AcDbLayerTableRecord
  2
18
 70
     0
 62
   212
  6
CONTINUOUS
  0
LAYER
  5
36
100
AcDbSymbolTableRecord
100
AcDbLayerTableRecord
  2
19
 70
     0
 62
    52
  6
CONTINUOUS
  0
LAYER
  5
37
100
AcDbSymbolTableRecord
100
AcDbLayerTableRecord
  2
20
 70
     0
 62
   250
  6
CONTINUOUS
  0
LAYER
  5
38
100
AcDbSymbolTableRecord
100
AcDbLayerTableRecord
  2
21
 70
     0
 62
     7
  6
CONTINUOUS
  0
LAYER
  5
39
100
AcDbSymbolTableRecord
100
AcDbLayerTableRecord
  2
22
 70
     0
 62
     7
  6
CONTINUOUS
  0
ENDTAB
  0
TABLE
  2
STYLE
  5
3
100
AcDbSymbolTable
 70
     2
  0
STYLE
  5
17
100
AcDbSymbolTableRecord
100
AcDbTextStyleTableRecord
  2
STANDARD
 70
     0
 40
0.0
 41
1.0
 50
0.0
 71
     0
 42
0.0
  3
txt
  4
bigfont
  0
STYLE
  5
1D
100
AcDbSymbolTableRecord
100
AcDbTextStyleTableRecord
  2
T_STANDARD
 70
    68
 40
10.0
 41
1.0
 50
0.0
 71
     0
 42
10.0
  3
txt
  4
bigfont
  0
ENDTAB
  0
TABLE
  2
VIEW
  5
5
100
AcDbSymbolTable
 70
     0
  0
ENDTAB
  0
TABLE
  2
UCS
  5
6
100
AcDbSymbolTable
 70
     0
  0
ENDTAB
  0
TABLE
  2
APPID
  5
8
100
AcDbSymbolTable
 70
     1
  0
APPID
  5
16
100
AcDbSymbolTableRecord
100
AcDbRegAppTableRecord
  2
ACAD
 70
     0
  0
ENDTAB
  0
TABLE
  2
DIMSTYLE
  5
9
100
AcDbSymbolTable
 70
     1
  0
DIMSTYLE
105
18
100
AcDbSymbolTableRecord
100
AcDbDimStyleTableRecord
  2
STANDARD
 70
     0
  3

  4

  5

  6

  7

 40
1.0
 41
0.18
 42
0.0625
 43
0.38
 44
0.18
 45
0.0
 46
0.0
 47
0.0
 48
0.0
 71
     0
 72
     0
 73
     1
 74
     1
 75
     0
 76
     0
 77
     0
 78
     0
140
0.18
141
0.09
142
0.0
143
25.4
144
1.0
145
0.0
146
1.0
147
0.09
170
     0
171
     2
172
     0
173
     0
174
     0
175
     0
176
     0
177
     0
178
     0
270
     2
271
     4
272
     4
273
     2
274
     2
275
     0
280
     0
281
     0
282
     0
283
     1
284
     0
285
     0
286
     0
287
     0
288
     0
340
17
  0
ENDTAB
  0
TABLE
  2
BLOCK_RECORD
  5
1
100
AcDbSymbolTable
 70
    10
  0
BLOCK_RECORD
  5
A
100
AcDbSymbolTableRecord
100
AcDbBlockTableRecord
  2
*MODEL_SPACE
  0
BLOCK_RECORD
  5
B
100
AcDbSymbolTableRecord
100
AcDbBlockTableRecord
  2
*PAPER_SPACE
  0
BLOCK_RECORD
  5
3A
100
AcDbSymbolTableRecord
100
AcDbBlockTableRecord
  2
*G0
  0
BLOCK_RECORD
  5
5B8
100
AcDbSymbolTableRecord
100
AcDbBlockTableRecord
  2
*G1
  0
BLOCK_RECORD
  5
5C4
100
AcDbSymbolTableRecord
100
AcDbBlockTableRecord
  2
*G2
  0
BLOCK_RECORD
  5
5D0
100
AcDbSymbolTableRecord
100
AcDbBlockTableRecord
  2
*G3
  0
BLOCK_RECORD
  5
5DC
100
AcDbSymbolTableRecord
100
AcDbBlockTableRecord
  2
*G4
  0
BLOCK_RECORD
  5
5E8
100
AcDbSymbolTableRecord
100
AcDbBlockTableRecord
  2
*G5
  0
BLOCK_RECORD
  5
5F4
100
AcDbSymbolTableRecord
100
AcDbBlockTableRecord
  2
*G6
  0
BLOCK_RECORD
  5
600
100
AcDbSymbolTableRecord
100
AcDbBlockTableRecord
  2
*G7
  0
BLOCK_RECORD
  5
60C
100
AcDbSymbolTableRecord
100
AcDbBlockTableRecord
  2
*G8
  0
BLOCK_RECORD
  5
618
100
AcDbSymbolTableRecord
100
AcDbBlockTableRecord
  2
*G9
  0
ENDTAB
  0
ENDSEC
  0
SECTION
  2
BLOCKS
  0
BLOCK
  5
D
100
AcDbEntity
  8
0
100
AcDbBlockBegin
  2
*MODEL_SPACE
 70
     0
 10
0.0
 20
0.0
 30
0.0
  3
*MODEL_SPACE
  1

  0
ENDBLK
  5
E
100
AcDbEntity
  8
0
100
AcDbBlockEnd
  0
BLOCK
  5
F
100
AcDbEntity
 67
     1
  8
0
100
AcDbBlockBegin
  2
*PAPER_SPACE
 70
     0
 10
0.0
 20
0.0
 30
0.0
  3
*PAPER_SPACE
  1

  0
ENDBLK
  5
10
100
AcDbEntity
 67
     1
  8
0
100
AcDbBlockEnd
  0
BLOCK
  5
3B
100
AcDbEntity
  8
0
  6
CONTINUOUS
 62
     7
100
AcDbBlockBegin
  2
*G0
 70
     0
 10
0.0
 20
0.0
 30
0.0
  3
*G0
  1

  0
ENDBLK
  5
3C
100
AcDbEntity
  8
0
100
AcDbBlockEnd
  0
BLOCK
  5
5B9
100
AcDbEntity
  8
2
  6
CONTINUOUS
 62
     7
100
AcDbBlockBegin
  2
*G1
 70
     0
 10
0.0
 20
0.0
 30
0.0
  3
*G1
  1

  0
LINE
  5
5BA
100
AcDbEntity
  8
2
  6
CONTINUOUS
 62
     7
100
AcDbLine
 10
863.129709
 20
777.049685
 30
0.0
 11
1263.129709
 21
777.049685
 31
0.0
  0
LINE
  5
5BB
100
AcDbEntity
  8
2
  6
CONTINUOUS
 62
     7
100
AcDbLine
 10
863.129709
 20
787.049685
 30
0.0
 11
863.129709
 21
714.536885
 31
0.0
  0
LINE
  5
5BC
100
AcDbEntity
  8
2
  6
CONTINUOUS
 62
     7
100
AcDbLine
 10
1263.129709
 20
787.049685
 30
0.0
 11
1263.129709
 21
760.876885
 31
0.0
  0
LINE
  5
5BD
100
AcDbEntity
  8
2
  6
CONTINUOUS
 62
     7
100
AcDbLine
 10
863.129709
 20
777.049685
 30
0.0
 11
882.448226
 21
782.226066
 31
0.0
  0
LINE
  5
5BE
100
AcDbEntity
  8
2
  6
CONTINUOUS
 62
     7
100
AcDbLine
 10
863.129709
 20
777.049685
 30
0.0
 11
882.448226
 21
771.873304
 31
0.0
  0
LINE
  5
5BF
100
AcDbEntity
  8
2
  6
CONTINUOUS
 62
     7
100
AcDbLine
 10
1263.129709
 20
777.049685
 30
0.0
 11
1243.811192
 21
771.873304
 31
0.0
  0
LINE
  5
5C0
100
AcDbEntity
  8
2
  6
CONTINUOUS
 62
     7
100
AcDbLine
 10
1263.129709
 20
777.049685
 30
0.0
 11
1243.811192
 21
782.226066
 31
0.0
  0
TEXT
  5
5C1
100
AcDbEntity
  8
2
  6
CONTINUOUS
 62
     7
100
AcDbText
 10
1033.129709
 20
757.049685
 30
0.0
 40
40.0
  1
400
 41
0.5
 51
15.0
 11
1033.129709
 21
757.049685
 31
0.0
100
AcDbText
 73
     1
  0
ENDBLK
  5
5C2
100
AcDbEntity
  8
0
100
AcDbBlockEnd
  0
BLOCK
  5
5C5
100
AcDbEntity
  8
2
  6
CONTINUOUS
 62
     7
100
AcDbBlockBegin
  2
*G2
 70
     0
 10
0.0
 20
0.0
 30
0.0
  3
*G2
  1

  0
LINE
  5
5C6
100
AcDbEntity
  8
2
  6
CONTINUOUS
 62
     7
100
AcDbLine
 10
866.129709
 20
701.888733
 30
0.0
 11
863.129709
 21
701.888733
 31
0.0
  0
LINE
  5
5C7
100
AcDbEntity
  8
2
  6
CONTINUOUS
 62
     7
100
AcDbLine
 10
866.129709
 20
711.888733
 30
0.0
 11
866.129709
 21
699.887285
 31
0.0
  0
LINE
  5
5C8
100
AcDbEntity
  8
2
  6
CONTINUOUS
 62
     7
100
AcDbLine
 10
863.129709
 20
711.888733
 30
0.0
 11
863.129709
 21
714.536885
 31
0.0
  0
LINE
  5
5C9
100
AcDbEntity
  8
2
  6
CONTINUOUS
 62
     7
100
AcDbLine
 10
866.129709
 20
701.888733
 30
0.0
 11
846.811192
 21
696.712352
 31
0.0
  0
LINE
  5
5CA
100
AcDbEntity
  8
2
  6
CONTINUOUS
 62
     7
100
AcDbLine
 10
866.129709
 20
701.888733
 30
0.0
 11
846.811192
 21
707.065114
 31
0.0
  0
LINE
  5
5CB
100
AcDbEntity
  8
2
  6
CONTINUOUS
 62
     7
100
AcDbLine
 10
863.129709
 20
701.888733
 30
0.0
 11
882.448226
 21
707.065114
 31
0.0
  0
LINE
  5
5CC
100
AcDbEntity
  8
2
  6
CONTINUOUS
 62
     7
100
AcDbLine
 10
863.129709
 20
701.888733
 30
0.0
 11
882.448226
 21
696.712352
 31
0.0
  0
TEXT
  5
5CD
100
AcDbEntity
  8
2
  6
CONTINUOUS
 62
     7
100
AcDbText
 10
854.629709
 20
681.888733
 30
0.0
 40
40.0
  1
3
 41
0.5
 51
15.0
 11
854.629709
 21
681.888733
 31
0.0
100
AcDbText
 73
     1
  0
ENDBLK
  5
5CE
100
AcDbEntity
  8
0
100
AcDbBlockEnd
  0
BLOCK
  5
5D1
100
AcDbEntity
  8
2
  6
CONTINUOUS
 62
     7
100
AcDbBlockBegin
  2
*G3
 70
     0
 10
0.0
 20
0.0
 30
0.0
  3
*G3
  1

  0
LINE
  5
5D2
100
AcDbEntity
  8
2
  6
CONTINUOUS
 62
     7
100
AcDbLine
 10
1063.129709
 20
388.931285
 30
0.0
 11
863.129709
 21
388.931285
 31
0.0
  0
LINE
  5
5D3
100
AcDbEntity
  8
2
  6
CONTINUOUS
 62
     7
100
AcDbLine
 10
1063.129709
 20
378.931285
 30
0.0
 11
1063.129709
 21
430.978485
 31
0.0
  0
LINE
  5
5D4
100
AcDbEntity
  8
2
  6
CONTINUOUS
 62
     7
100
AcDbLine
 10
863.129709
 20
378.931285
 30
0.0
 11
863.129709
 21
527.536885
 31
0.0
  0
LINE
  5
5D5
100
AcDbEntity
  8
2
  6
CONTINUOUS
 62
     7
100
AcDbLine
 10
1063.129709
 20
388.931285
 30
0.0
 11
1043.811192
 21
383.754904
 31
0.0
  0
LINE
  5
5D6
100
AcDbEntity
  8
2
  6
CONTINUOUS
 62
     7
100
AcDbLine
 10
1063.129709
 20
388.931285
 30
0.0
 11
1043.811192
 21
394.107666
 31
0.0
  0
LINE
  5
5D7
100
AcDbEntity
  8
2
  6
CONTINUOUS
 62
     7
100
AcDbLine
 10
863.129709
 20
388.931285
 30
0.0
 11
882.448226
 21
394.107666
 31
0.0
  0
LINE
  5
5D8
100
AcDbEntity
  8
2
  6
CONTINUOUS
 62
     7
100
AcDbLine
 10
863.129709
 20
388.931285
 30
0.0
 11
882.448226
 21
383.754904
 31
0.0
  0
TEXT
  5
5D9
100
AcDbEntity
  8
2
  6
CONTINUOUS
 62
     7
100
AcDbText
 10
933.129709
 20
368.931285
 30
0.0
 40
40.0
  1
200
 41
0.5
 51
15.0
 11
933.129709
 21
368.931285
 31
0.0
100
AcDbText
 73
     1
  0
ENDBLK
  5
5DA
100
AcDbEntity
  8
0
100
AcDbBlockEnd
  0
BLOCK
  5
5DD
100
AcDbEntity
  8
2
  6
CONTINUOUS
 62
     7
100
AcDbBlockBegin
  2
*G4
 70
     0
 10
0.0
 20
0.0
 30
0.0
  3
*G4
  1

  0
LINE
  5
5DE
100
AcDbEntity
  8
2
  6
CONTINUOUS
 62
     7
100
AcDbLine
 10
1063.129709
 20
388.931285
 30
0.0
 11
1463.129709
 21
388.931285
 31
0.0
  0
LINE
  5
5DF
100
AcDbEntity
  8
2
  6
CONTINUOUS
 62
     7
100
AcDbLine
 10
1063.129709
 20
378.931285
 30
0.0
 11
1063.129709
 21
430.978485
 31
0.0
  0
LINE
  5
5E0
100
AcDbEntity
  8
2
  6
CONTINUOUS
 62
     7
100
AcDbLine
 10
1463.129709
 20
378.931285
 30
0.0
 11
1463.129709
 21
430.978485
 31
0.0
  0
LINE
  5
5E1
100
AcDbEntity
  8
2
  6
CONTINUOUS
 62
     7
100
AcDbLine
 10
1063.129709
 20
388.931285
 30
0.0
 11
1082.448226
 21
394.107666
 31
0.0
  0
LINE
  5
5E2
100
AcDbEntity
  8
2
  6
CONTINUOUS
 62
     7
100
AcDbLine
 10
1063.129709
 20
388.931285
 30
0.0
 11
1082.448226
 21
383.754904
 31
0.0
  0
LINE
  5
5E3
100
AcDbEntity
  8
2
  6
CONTINUOUS
 62
     7
100
AcDbLine
 10
1463.129709
 20
388.931285
 30
0.0
 11
1443.811192
 21
383.754904
 31
0.0
  0
LINE
  5
5E4
100
AcDbEntity
  8
2
  6
CONTINUOUS
 62
     7
100
AcDbLine
 10
1463.129709
 20
388.931285
 30
0.0
 11
1443.811192
 21
394.107666
 31
0.0
  0
TEXT
  5
5E5
100
AcDbEntity
  8
2
  6
CONTINUOUS
 62
     7
100
AcDbText
 10
1233.129709
 20
368.931285
 30
0.0
 40
40.0
  1
400
 41
0.5
 51
15.0
 11
1233.129709
 21
368.931285
 31
0.0
100
AcDbText
 73
     1
  0
ENDBLK
  5
5E6
100
AcDbEntity
  8
0
100
AcDbBlockEnd
  0
BLOCK
  5
5E9
100
AcDbEntity
  8
2
  6
CONTINUOUS
 62
     7
100
AcDbBlockBegin
  2
*G5
 70
     0
 10
0.0
 20
0.0
 30
0.0
  3
*G5
  1

  0
LINE
  5
5EA
100
AcDbEntity
  8
2
  6
CONTINUOUS
 62
     7
100
AcDbLine
 10
2863.129709
 20
279.969685
 30
0.0
 11
863.129709
 21
279.969685
 31
0.0
  0
LINE
  5
5EB
100
AcDbEntity
  8
2
  6
CONTINUOUS
 62
     7
100
AcDbLine
 10
2863.129709
 20
269.969685
 30
0.0
 11
2863.129709
 21
302.643285
 31
0.0
  0
LINE
  5
5EC
100
AcDbEntity
  8
2
  6
CONTINUOUS
 62
     7
100
AcDbLine
 10
863.129709
 20
269.969685
 30
0.0
 11
863.129709
 21
302.643285
 31
0.0
  0
LINE
  5
5ED
100
AcDbEntity
  8
2
  6
CONTINUOUS
 62
     7
100
AcDbLine
 10
2863.129709
 20
279.969685
 30
0.0
 11
2843.811192
 21
274.793304
 31
0.0
  0
LINE
  5
5EE
100
AcDbEntity
  8
2
  6
CONTINUOUS
 62
     7
100
AcDbLine
 10
2863.129709
 20
279.969685
 30
0.0
 11
2843.811192
 21
285.146066
 31
0.0
  0
LINE
  5
5EF
100
AcDbEntity
  8
2
  6
CONTINUOUS
 62
     7
100
AcDbLine
 10
863.129709
 20
279.969685
 30
0.0
 11
882.448226
 21
285.146066
 31
0.0
  0
LINE
  5
5F0
100
AcDbEntity
  8
2
  6
CONTINUOUS
 62
     7
100
AcDbLine
 10
863.129709
 20
279.969685
 30
0.0
 11
882.448226
 21
274.793304
 31
0.0
  0
TEXT
  5
5F1
100
AcDbEntity
  8
2
  6
CONTINUOUS
 62
     7
100
AcDbText
 10
1823.129709
 20
259.969685
 30
0.0
 40
40.0
  1
2000
 41
0.5
 51
15.0
 11
1823.129709
 21
259.969685
 31
0.0
100
AcDbText
 73
     1
  0
ENDBLK
  5
5F2
100
AcDbEntity
  8
0
100
AcDbBlockEnd
  0
BLOCK
  5
5F5
100
AcDbEntity
  8
2
  6
CONTINUOUS
 62
     7
100
AcDbBlockBegin
  2
*G6
 70
     0
 10
0.0
 20
0.0
 30
0.0
  3
*G6
  1

  0
LINE
  5
5F6
100
AcDbEntity
  8
2
  6
CONTINUOUS
 62
     7
100
AcDbLine
 10
1863.129709
 20
388.931285
 30
0.0
 11
1463.129709
 21
388.931285
 31
0.0
  0
LINE
  5
5F7
100
AcDbEntity
  8
2
  6
CONTINUOUS
 62
     7
100
AcDbLine
 10
1863.129709
 20
378.931285
 30
0.0
 11
1863.129709
 21
430.978485
 31
0.0
  0
LINE
  5
5F8
100
AcDbEntity
  8
2
  6
CONTINUOUS
 62
     7
100
AcDbLine
 10
1463.129709
 20
378.931285
 30
0.0
 11
1463.129709
 21
430.978485
 31
0.0
  0
LINE
  5
5F9
100
AcDbEntity
  8
2
  6
CONTINUOUS
 62
     7
100
AcDbLine
 10
1863.129709
 20
388.931285
 30
0.0
 11
1843.811192
 21
383.754904
 31
0.0
  0
LINE
  5
5FA
100
AcDbEntity
  8
2
  6
CONTINUOUS
 62
     7
100
AcDbLine
 10
1863.129709
 20
388.931285
 30
0.0
 11
1843.811192
 21
394.107666
 31
0.0
  0
LINE
  5
5FB
100
AcDbEntity
  8
2
  6
CONTINUOUS
 62
     7
100
AcDbLine
 10
1463.129709
 20
388.931285
 30
0.0
 11
1482.448226
 21
394.107666
 31
0.0
  0
LINE
  5
5FC
100
AcDbEntity
  8
2
  6
CONTINUOUS
 62
     7
100
AcDbLine
 10
1463.129709
 20
388.931285
 30
0.0
 11
1482.448226
 21
383.754904
 31
0.0
  0
TEXT
  5
5FD
100
AcDbEntity
  8
2
  6
CONTINUOUS
 62
     7
100
AcDbText
 10
1633.129709
 20
368.931285
 30
0.0
 40
40.0
  1
400
 41
0.5
 51
15.0
 11
1633.129709
 21
368.931285
 31
0.0
100
AcDbText
 73
     1
  0
ENDBLK
  5
5FE
100
AcDbEntity
  8
0
100
AcDbBlockEnd
  0
BLOCK
  5
601
100
AcDbEntity
  8
2
  6
CONTINUOUS
 62
     7
100
AcDbBlockBegin
  2
*G7
 70
     0
 10
0.0
 20
0.0
 30
0.0
  3
*G7
  1

  0
LINE
  5
602
100
AcDbEntity
  8
2
  6
CONTINUOUS
 62
     7
100
AcDbLine
 10
1863.129709
 20
388.931285
 30
0.0
 11
2263.129709
 21
388.931285
 31
0.0
  0
LINE
  5
603
100
AcDbEntity
  8
2
  6
CONTINUOUS
 62
     7
100
AcDbLine
 10
1863.129709
 20
378.931285
 30
0.0
 11
1863.129709
 21
430.978485
 31
0.0
  0
LINE
  5
604
100
AcDbEntity
  8
2
  6
CONTINUOUS
 62
     7
100
AcDbLine
 10
2263.129709
 20
378.931285
 30
0.0
 11
2263.129709
 21
430.978485
 31
0.0
  0
LINE
  5
605
100
AcDbEntity
  8
2
  6
CONTINUOUS
 62
     7
100
AcDbLine
 10
1863.129709
 20
388.931285
 30
0.0
 11
1882.448226
 21
394.107666
 31
0.0
  0
LINE
  5
606
100
AcDbEntity
  8
2
  6
CONTINUOUS
 62
     7
100
AcDbLine
 10
1863.129709
 20
388.931285
 30
0.0
 11
1882.448226
 21
383.754904
 31
0.0
  0
LINE
  5
607
100
AcDbEntity
  8
2
  6
CONTINUOUS
 62
     7
100
AcDbLine
 10
2263.129709
 20
388.931285
 30
0.0
 11
2243.811192
 21
383.754904
 31
0.0
  0
LINE
  5
608
100
AcDbEntity
  8
2
  6
CONTINUOUS
 62
     7
100
AcDbLine
 10
2263.129709
 20
388.931285
 30
0.0
 11
2243.811192
 21
394.107666
 31
0.0
  0
TEXT
  5
609
100
AcDbEntity
  8
2
  6
CONTINUOUS
 62
     7
100
AcDbText
 10
2033.129709
 20
368.931285
 30
0.0
 40
40.0
  1
400
 41
0.5
 51
15.0
 11
2033.129709
 21
368.931285
 31
0.0
100
AcDbText
 73
     1
  0
ENDBLK
  5
60A
100
AcDbEntity
  8
0
100
AcDbBlockEnd
  0
BLOCK
  5
60D
100
AcDbEntity
  8
2
  6
CONTINUOUS
 62
     7
100
AcDbBlockBegin
  2
*G8
 70
     0
 10
0.0
 20
0.0
 30
0.0
  3
*G8
  1

  0
LINE
  5
60E
100
AcDbEntity
  8
2
  6
CONTINUOUS
 62
     7
100
AcDbLine
 10
2663.129709
 20
388.931285
 30
0.0
 11
2863.129709
 21
388.931285
 31
0.0
  0
LINE
  5
60F
100
AcDbEntity
  8
2
  6
CONTINUOUS
 62
     7
100
AcDbLine
 10
2663.129709
 20
378.931285
 30
0.0
 11
2663.129709
 21
430.978485
 31
0.0
  0
LINE
  5
610
100
AcDbEntity
  8
2
  6
CONTINUOUS
 62
     7
100
AcDbLine
 10
2863.129709
 20
378.931285
 30
0.0
 11
2863.129709
 21
527.536885
 31
0.0
  0
LINE
  5
611
100
AcDbEntity
  8
2
  6
CONTINUOUS
 62
     7
100
AcDbLine
 10
2663.129709
 20
388.931285
 30
0.0
 11
2682.448226
 21
394.107666
 31
0.0
  0
LINE
  5
612
100
AcDbEntity
  8
2
  6
CONTINUOUS
 62
     7
100
AcDbLine
 10
2663.129709
 20
388.931285
 30
0.0
 11
2682.448226
 21
383.754904
 31
0.0
  0
LINE
  5
613
100
AcDbEntity
  8
2
  6
CONTINUOUS
 62
     7
100
AcDbLine
 10
2863.129709
 20
388.931285
 30
0.0
 11
2843.811192
 21
383.754904
 31
0.0
  0
LINE
  5
614
100
AcDbEntity
  8
2
  6
CONTINUOUS
 62
     7
100
AcDbLine
 10
2863.129709
 20
388.931285
 30
0.0
 11
2843.811192
 21
394.107666
 31
0.0
  0
TEXT
  5
615
100
AcDbEntity
  8
2
  6
CONTINUOUS
 62
     7
100
AcDbText
 10
2733.129709
 20
368.931285
 30
0.0
 40
40.0
  1
200
 41
0.5
 51
15.0
 11
2733.129709
 21
368.931285
 31
0.0
100
AcDbText
 73
     1
  0
ENDBLK
  5
616
100
AcDbEntity
  8
0
100
AcDbBlockEnd
  0
BLOCK
  5
619
100
AcDbEntity
  8
2
  6
CONTINUOUS
 62
     7
100
AcDbBlockBegin
  2
*G9
 70
     0
 10
0.0
 20
0.0
 30
0.0
  3
*G9
  1

  0
LINE
  5
61A
100
AcDbEntity
  8
2
  6
CONTINUOUS
 62
     7
100
AcDbLine
 10
2663.129709
 20
388.931285
 30
0.0
 11
2263.129709
 21
388.931285
 31
0.0
  0
LINE
  5
61B
100
AcDbEntity
  8
2
  6
CONTINUOUS
 62
     7
100
AcDbLine
 10
2663.129709
 20
378.931285
 30
0.0
 11
2663.129709
 21
430.978485
 31
0.0
  0
LINE
  5
61C
100
AcDbEntity
  8
2
  6
CONTINUOUS
 62
     7
100
AcDbLine
 10
2263.129709
 20
378.931285
 30
0.0
 11
2263.129709
 21
430.978485
 31
0.0
  0
LINE
  5
61D
100
AcDbEntity
  8
2
  6
CONTINUOUS
 62
     7
100
AcDbLine
 10
2663.129709
 20
388.931285
 30
0.0
 11
2643.811192
 21
383.754904
 31
0.0
  0
LINE
  5
61E
100
AcDbEntity
  8
2
  6
CONTINUOUS
 62
     7
100
AcDbLine
 10
2663.129709
 20
388.931285
 30
0.0
 11
2643.811192
 21
394.107666
 31
0.0
  0
LINE
  5
61F
100
AcDbEntity
  8
2
  6
CONTINUOUS
 62
     7
100
AcDbLine
 10
2263.129709
 20
388.931285
 30
0.0
 11
2282.448226
 21
394.107666
 31
0.0
  0
LINE
  5
620
100
AcDbEntity
  8
2
  6
CONTINUOUS
 62
     7
100
AcDbLine
 10
2263.129709
 20
388.931285
 30
0.0
 11
2282.448226
 21
383.754904
 31
0.0
  0
TEXT
  5
621
100
AcDbEntity
  8
2
  6
CONTINUOUS
 62
     7
100
AcDbText
 10
2433.129709
 20
368.931285
 30
0.0
 40
40.0
  1
400
 41
0.5
 51
15.0
 11
2433.129709
 21
368.931285
 31
0.0
100
AcDbText
 73
     1
  0
ENDBLK
  5
622
100
AcDbEntity
  8
0
100
AcDbBlockEnd
  0
ENDSEC
  0
SECTION
  2
ENTITIES
  0
INSERT
  5
3D
100
AcDbEntity
  8
0
  6
CONTINUOUS
 62
     7
100
AcDbBlockReference
  2
*G0
 10
0.0
 20
0.0
 30
0.0
  0
LINE
  5
3E
100
AcDbEntity
  8
2
  6
CONTINUOUS
 62
     7
100
AcDbLine
 10
863.129709
 20
646.536885
 30
0.0
 11
863.129709
 21
595.536885
 31
0.0
  0
LINE
  5
3F
100
AcDbEntity
  8
2
  6
CENTER
 62
     7
100
AcDbLine
 10
838.312909
 20
621.036885
 30
0.0
 11
1063.129709
 21
621.036885
 31
0.0
  0
LINE
  5
40
100
AcDbEntity
  8
2
  6
CONTINUOUS
 62
     7
100
AcDbLine
 10
863.129709
 20
595.536885
 30
0.0
 11
864.129709
 21
595.536885
 31
0.0
  0
LINE
  5
41
100
AcDbEntity
  8
2
  6
CONTINUOUS
 62
     7
100
AcDbLine
 10
863.129709
 20
646.536885
 30
0.0
 11
864.129709
 21
646.536885
 31
0.0
  0
LINE
  5
42
100
AcDbEntity
  8
2
  6
CONTINUOUS
 62
     7
100
AcDbLine
 10
866.129709
 20
668.536885
 30
0.0
 11
875.129709
 21
668.536885
 31
0.0
  0
LINE
  5
43
100
AcDbEntity
  8
2
  6
CONTINUOUS
 62
     7
100
AcDbLine
 10
866.129709
 20
573.536885
 30
0.0
 11
875.129709
 21
573.536885
 31
0.0
  0
LINE
  5
44
100
AcDbEntity
  8
2
  6
CONTINUOUS
 62
     7
100
AcDbLine
 10
881.129709
 20
638.887285
 30
0.0
 11
883.129709
 21
638.887285
 31
0.0
  0
LINE
  5
45
100
AcDbEntity
  8
2
  6
CONTINUOUS
 62
     7
100
AcDbLine
 10
883.129709
 20
636.887285
 30
0.0
 11
888.129709
 21
631.887285
 31
0.0
  0
LINE
  5
46
100
AcDbEntity
  8
2
  6
CONTINUOUS
 62
     7
100
AcDbLine
 10
877.129709
 20
575.536885
 30
0.0
 11
877.129709
 21
621.036885
 31
0.0
  0
LINE
  5
47
100
AcDbEntity
  8
2
  6
CONTINUOUS
 62
     7
100
AcDbLine
 10
881.129709
 20
603.187285
 30
0.0
 11
883.129709
 21
603.187285
 31
0.0
  0
LINE
  5
48
100
AcDbEntity
  8
2
  6
CONTINUOUS
 62
     7
100
AcDbLine
 10
883.129709
 20
603.187285
 30
0.0
 11
883.129709
 21
621.036885
 31
0.0
  0
LINE
  5
49
100
AcDbEntity
  8
2
  6
CONTINUOUS
 62
     7
100
AcDbLine
 10
883.129709
 20
605.187285
 30
0.0
 11
888.129709
 21
610.187285
 31
0.0
  0
LINE
  5
4A
100
AcDbEntity
  8
2
  6
CONTINUOUS
 62
     7
100
AcDbLine
 10
888.129709
 20
621.036885
 30
0.0
 11
888.129709
 21
610.187285
 31
0.0
  0
LINE
  5
4B
100
AcDbEntity
  8
2
  6
CONTINUOUS
 62
     7
100
AcDbLine
 10
864.129709
 20
621.036885
 30
0.0
 11
864.129709
 21
575.536885
 31
0.0
  0
LINE
  5
4C
100
AcDbEntity
  8
2
  6
CONTINUOUS
 62
     7
100
AcDbLine
 10
888.129709
 20
610.187285
 30
0.0
 11
1054.129709
 21
610.187285
 31
0.0
  0
LINE
  5
4D
100
AcDbEntity
  8
2
  6
CONTINUOUS
 62
     7
100
AcDbLine
 10
2863.129709
 20
646.536885
 30
0.0
 11
2863.129709
 21
595.536885
 31
0.0
  0
LINE
  5
4E
100
AcDbEntity
  8
2
  6
CENTER
 62
     7
100
AcDbLine
 10
2863.586509
 20
621.036885
 30
0.0
 11
1063.129709
 21
621.036885
 31
0.0
  0
LINE
  5
4F
100
AcDbEntity
  8
2
  6
CONTINUOUS
 62
     7
100
AcDbLine
 10
2863.129709
 20
595.536885
 30
0.0
 11
2862.129709
 21
595.536885
 31
0.0
  0
LINE
  5
50
100
AcDbEntity
  8
2
  6
CONTINUOUS
 62
     7
100
AcDbLine
 10
2863.129709
 20
646.536885
 30
0.0
 11
2862.129709
 21
646.536885
 31
0.0
  0
LINE
  5
51
100
AcDbEntity
  8
2
  6
CONTINUOUS
 62
     7
100
AcDbLine
 10
2860.129709
 20
668.536885
 30
0.0
 11
2851.129709
 21
668.536885
 31
0.0
  0
LINE
  5
52
100
AcDbEntity
  8
2
  6
CONTINUOUS
 62
     7
100
AcDbLine
 10
2860.129709
 20
573.536885
 30
0.0
 11
2851.129709
 21
573.536885
 31
0.0
  0
LINE
  5
53
100
AcDbEntity
  8
2
  6
CONTINUOUS
 62
     7
100
AcDbLine
 10
2845.129709
 20
638.887285
 30
0.0
 11
2843.129709
 21
638.887285
 31
0.0
  0
LINE
  5
54
100
AcDbEntity
  8
2
  6
CONTINUOUS
 62
     7
100
AcDbLine
 10
2843.130509
 20
636.887285
 30
0.0
 11
2838.129709
 21
631.887285
 31
0.0
  0
LINE
  5
55
100
AcDbEntity
  8
2
  6
CONTINUOUS
 62
     7
100
AcDbLine
 10
2849.129709
 20
575.536885
 30
0.0
 11
2849.129709
 21
621.036885
 31
0.0
  0
LINE
  5
56
100
AcDbEntity
  8
2
  6
CONTINUOUS
 62
     7
100
AcDbLine
 10
2845.129709
 20
603.187285
 30
0.0
 11
2843.129709
 21
603.187285
 31
0.0
  0
LINE
  5
57
100
AcDbEntity
  8
2
  6
CONTINUOUS
 62
     7
100
AcDbLine
 10
2843.129709
 20
603.187285
 30
0.0
 11
2843.129709
 21
621.036885
 31
0.0
  0
LINE
  5
58
100
AcDbEntity
  8
2
  6
CONTINUOUS
 62
     7
100
AcDbLine
 10
2843.129709
 20
605.187285
 30
0.0
 11
2838.129709
 21
610.187285
 31
0.0
  0
LINE
  5
59
100
AcDbEntity
  8
2
  6
CONTINUOUS
 62
     7
100
AcDbLine
 10
2838.129709
 20
621.036885
 30
0.0
 11
2838.129709
 21
610.187285
 31
0.0
  0
LINE
  5
5A
100
AcDbEntity
  8
2
  6
CONTINUOUS
 62
     7
100
AcDbLine
 10
2862.129709
 20
621.036885
 30
0.0
 11
2862.129709
 21
575.536885
 31
0.0
  0
LINE
  5
5B
100
AcDbEntity
  8
2
  6
CONTINUOUS
 62
     7
100
AcDbLine
 10
2772.129709
 20
610.187285
 30
0.0
 11
2838.129709
 21
610.187285
 31
0.0
  0
LINE
  5
5C
100
AcDbEntity
  8
2
  6
CONTINUOUS
 62
     7
100
AcDbLine
 10
2654.129709
 20
610.187285
 30
0.0
 11
2654.129709
 21
602.187285
 31
0.0
  0
LINE
  5
5D
100
AcDbEntity
  8
2
  6
CONTINUOUS
 62
     7
100
AcDbLine
 10
2654.129709
 20
602.187285
 30
0.0
 11
2663.129709
 21
602.187285
 31
0.0
  0
LINE
  5
5E
100
AcDbEntity
  8
2
  6
CONTINUOUS
 62
     7
100
AcDbLine
 10
2654.782509
 20
595.187285
 30
0.0
 11
2654.599309
 21
602.187285
 31
0.0
  0
LINE
  5
5F
100
AcDbEntity
  8
2
  6
CONTINUOUS
 62
     7
100
AcDbLine
 10
2655.637709
 20
595.187285
 30
0.0
 11
2655.495309
 21
600.636085
 31
0.0
  0
LINE
  5
60
100
AcDbEntity
  8
2
  6
CONTINUOUS
 62
     7
100
AcDbLine
 10
2654.599309
 20
602.187285
 30
0.0
 11
2655.495309
 21
600.636085
 31
0.0
  0
LINE
  5
61
100
AcDbEntity
  8
2
  6
CONTINUOUS
 62
     7
100
AcDbLine
 10
2654.640109
 20
600.636085
 30
0.0
 11
2663.129709
 21
600.636085
 31
0.0
  0
LINE
  5
62
100
AcDbEntity
  8
2
  6
CONTINUOUS
 62
     7
100
AcDbLine
 10
2671.619309
 20
600.636085
 30
0.0
 11
2663.129709
 21
600.636085
 31
0.0
  0
LINE
  5
63
100
AcDbEntity
  8
2
  6
CONTINUOUS
 62
     7
100
AcDbLine
 10
2672.129709
 20
610.187285
 30
0.0
 11
2672.129709
 21
602.187285
 31
0.0
  0
LINE
  5
64
100
AcDbEntity
  8
2
  6
CONTINUOUS
 62
     7
100
AcDbLine
 10
2672.129709
 20
602.187285
 30
0.0
 11
2663.129709
 21
602.187285
 31
0.0
  0
LINE
  5
65
100
AcDbEntity
  8
2
  6
CONTINUOUS
 62
     7
100
AcDbLine
 10
2671.476909
 20
595.187285
 30
0.0
 11
2671.660109
 21
602.187285
 31
0.0
  0
LINE
  5
66
100
AcDbEntity
  8
2
  6
CONTINUOUS
 62
     7
100
AcDbLine
 10
2670.621709
 20
595.187285
 30
0.0
 11
2670.764109
 21
600.636085
 31
0.0
  0
LINE
  5
67
100
AcDbEntity
  8
2
  6
CONTINUOUS
 62
     7
100
AcDbLine
 10
2671.660109
 20
602.187285
 30
0.0
 11
2670.764909
 21
600.636085
 31
0.0
  0
LINE
  5
68
100
AcDbEntity
  8
2
  6
CONTINUOUS
 62
     7
100
AcDbLine
 10
2672.129709
 20
607.187285
 30
0.0
 11
2675.129709
 21
610.187285
 31
0.0
  0
LINE
  5
69
100
AcDbEntity
  8
2
  6
CONTINUOUS
 62
     7
100
AcDbLine
 10
2654.129709
 20
607.187285
 30
0.0
 11
2651.129709
 21
610.187285
 31
0.0
  0
LINE
  5
6A
100
AcDbEntity
  8
2
  6
CENTER
 62
     7
100
AcDbLine
 10
2663.129709
 20
646.536885
 30
0.0
 11
2663.129709
 21
595.536885
 31
0.0
  0
LINE
  5
6B
100
AcDbEntity
  8
2
  6
CENTER
 62
     7
100
AcDbLine
 10
2646.504109
 20
567.187285
 30
0.0
 11
2676.848909
 21
567.187285
 31
0.0
  0
LINE
  5
6C
100
AcDbEntity
  8
2
  6
CENTER
 62
     7
100
AcDbLine
 10
2663.129709
 20
599.339285
 30
0.0
 11
2663.129709
 21
498.978485
 31
0.0
  0
LINE
  5
6D
100
AcDbEntity
  8
2
  6
CONTINUOUS
 62
     7
100
AcDbLine
 10
2652.629709
 20
595.187285
 30
0.0
 11
2673.629709
 21
595.187285
 31
0.0
  0
LINE
  5
6E
100
AcDbEntity
  8
2
  6
CONTINUOUS
 62
     7
100
AcDbLine
 10
2652.629709
 20
545.187285
 30
0.0
 11
2654.629709
 21
545.187285
 31
0.0
  0
LINE
  5
6F
100
AcDbEntity
  8
2
  6
CONTINUOUS
 62
     7
100
AcDbLine
 10
2652.629709
 20
595.187285
 30
0.0
 11
2652.629709
 21
545.187285
 31
0.0
  0
LINE
  5
70
100
AcDbEntity
  8
2
  6
CONTINUOUS
 62
     7
100
AcDbLine
 10
2673.629709
 20
595.187285
 30
0.0
 11
2673.629709
 21
545.187285
 31
0.0
  0
LINE
  5
71
100
AcDbEntity
  8
2
  6
CONTINUOUS
 62
     7
100
AcDbLine
 10
2671.629709
 20
545.187285
 30
0.0
 11
2673.629709
 21
545.187285
 31
0.0
  0
LINE
  5
72
100
AcDbEntity
  8
2
  6
CONTINUOUS
 62
     7
100
AcDbLine
 10
2652.629709
 20
569.187285
 30
0.0
 11
2656.421709
 21
569.187285
 31
0.0
  0
LINE
  5
73
100
AcDbEntity
  8
2
  6
CONTINUOUS
 62
     7
100
AcDbLine
 10
2656.629709
 20
582.187285
 30
0.0
 11
2669.629709
 21
582.187285
 31
0.0
  0
LINE
  5
74
100
AcDbEntity
  8
2
  6
CONTINUOUS
 62
     7
100
AcDbLine
 10
2662.129709
 20
594.687285
 30
0.0
 11
2662.129709
 21
583.187285
 31
0.0
  0
LINE
  5
75
100
AcDbEntity
  8
2
  6
CONTINUOUS
 62
     7
100
AcDbLine
 10
2664.129709
 20
594.687285
 30
0.0
 11
2664.129709
 21
583.187285
 31
0.0
  0
LINE
  5
76
100
AcDbEntity
  8
2
  6
CONTINUOUS
 62
     7
100
AcDbLine
 10
2669.629709
 20
582.187285
 30
0.0
 11
2669.629709
 21
577.687285
 31
0.0
  0
LINE
  5
77
100
AcDbEntity
  8
2
  6
CONTINUOUS
 62
     7
100
AcDbLine
 10
2662.129709
 20
583.187285
 30
0.0
 11
2664.129709
 21
583.187285
 31
0.0
  0
LINE
  5
78
100
AcDbEntity
  8
2
  6
CONTINUOUS
 62
     7
100
AcDbLine
 10
2656.629709
 20
582.187285
 30
0.0
 11
2662.129709
 21
583.187285
 31
0.0
  0
LINE
  5
79
100
AcDbEntity
  8
2
  6
CONTINUOUS
 62
     7
100
AcDbLine
 10
2664.129709
 20
583.187285
 30
0.0
 11
2669.629709
 21
582.187285
 31
0.0
  0
LINE
  5
7A
100
AcDbEntity
  8
2
  6
CONTINUOUS
 62
     7
100
AcDbLine
 10
2653.129709
 20
594.687285
 30
0.0
 11
2653.129709
 21
569.187285
 31
0.0
  0
LINE
  5
7B
100
AcDbEntity
  8
2
  6
CONTINUOUS
 62
     7
100
AcDbLine
 10
2653.129709
 20
560.187285
 30
0.0
 11
2653.129709
 21
545.687285
 31
0.0
  0
LINE
  5
7C
100
AcDbEntity
  8
2
  6
CONTINUOUS
 62
     7
100
AcDbLine
 10
2673.129709
 20
565.187285
 30
0.0
 11
2673.129709
 21
545.687285
 31
0.0
  0
LINE
  5
7D
100
AcDbEntity
  8
2
  6
CONTINUOUS
 62
     7
100
AcDbLine
 10
2673.129709
 20
594.687285
 30
0.0
 11
2673.129709
 21
569.187285
 31
0.0
  0
LINE
  5
7E
100
AcDbEntity
  8
2
  6
CONTINUOUS
 62
     7
100
AcDbLine
 10
2662.129709
 20
594.687285
 30
0.0
 11
2664.129709
 21
594.687285
 31
0.0
  0
LINE
  5
7F
100
AcDbEntity
  8
2
  6
CONTINUOUS
 62
     7
100
AcDbLine
 10
2652.629709
 20
545.687285
 30
0.0
 11
2653.129709
 21
545.687285
 31
0.0
  0
LINE
  5
80
100
AcDbEntity
  8
2
  6
CONTINUOUS
 62
     7
100
AcDbLine
 10
2653.129709
 20
545.687285
 30
0.0
 11
2654.629709
 21
545.187285
 31
0.0
  0
LINE
  5
81
100
AcDbEntity
  8
2
  6
CONTINUOUS
 62
     7
100
AcDbLine
 10
2652.629709
 20
594.687285
 30
0.0
 11
2653.129709
 21
594.687285
 31
0.0
  0
LINE
  5
82
100
AcDbEntity
  8
2
  6
CONTINUOUS
 62
     7
100
AcDbLine
 10
2673.129709
 20
594.687285
 30
0.0
 11
2673.629709
 21
594.687285
 31
0.0
  0
LINE
  5
83
100
AcDbEntity
  8
2
  6
CONTINUOUS
 62
     7
100
AcDbLine
 10
2673.129709
 20
545.687285
 30
0.0
 11
2673.629709
 21
545.687285
 31
0.0
  0
LINE
  5
84
100
AcDbEntity
  8
2
  6
CONTINUOUS
 62
     7
100
AcDbLine
 10
2671.629709
 20
545.187285
 30
0.0
 11
2673.129709
 21
545.687285
 31
0.0
  0
LINE
  5
85
100
AcDbEntity
  8
2
  6
CONTINUOUS
 62
     7
100
AcDbLine
 10
2665.129709
 20
577.687285
 30
0.0
 11
2665.129709
 21
574.187285
 31
0.0
  0
LINE
  5
86
100
AcDbEntity
  8
2
  6
CONTINUOUS
 62
     7
100
AcDbLine
 10
2663.129709
 20
574.187285
 30
0.0
 11
2665.129709
 21
574.187285
 31
0.0
  0
LINE
  5
87
100
AcDbEntity
  8
2
  6
CONTINUOUS
 62
     7
100
AcDbLine
 10
2663.129709
 20
505.187285
 30
0.0
 11
2669.129709
 21
508.651285
 31
0.0
  0
LINE
  5
88
100
AcDbEntity
  8
2
  6
CONTINUOUS
 62
     7
100
AcDbLine
 10
2669.129709
 20
508.651285
 30
0.0
 11
2671.629709
 21
545.187285
 31
0.0
  0
LINE
  5
89
100
AcDbEntity
  8
2
  6
CONTINUOUS
 62
     7
100
AcDbLine
 10
2657.129709
 20
508.651285
 30
0.0
 11
2654.629709
 21
545.187285
 31
0.0
  0
LINE
  5
8A
100
AcDbEntity
  8
2
  6
CONTINUOUS
 62
     7
100
AcDbLine
 10
2663.129709
 20
505.187285
 30
0.0
 11
2657.129709
 21
508.651285
 31
0.0
  0
LINE
  5
8B
100
AcDbEntity
  8
2
  6
CONTINUOUS
 62
     7
100
AcDbLine
 10
2656.992109
 20
550.187285
 30
0.0
 11
2663.129709
 21
550.187285
 31
0.0
  0
LINE
  5
8C
100
AcDbEntity
  8
2
  6
CONTINUOUS
 62
     7
100
AcDbLine
 10
2656.992109
 20
550.187285
 30
0.0
 11
2656.085709
 21
549.280885
 31
0.0
  0
LINE
  5
8D
100
AcDbEntity
  8
2
  6
CONTINUOUS
 62
     7
100
AcDbLine
 10
2669.267309
 20
550.187285
 30
0.0
 11
2663.129709
 21
550.187285
 31
0.0
  0
LINE
  5
8E
100
AcDbEntity
  8
2
  6
CONTINUOUS
 62
     7
100
AcDbLine
 10
2669.267309
 20
550.187285
 30
0.0
 11
2670.173709
 21
549.280885
 31
0.0
  0
LINE
  5
8F
100
AcDbEntity
  8
2
  6
CONTINUOUS
 62
     7
100
AcDbLine
 10
2661.129709
 20
568.687285
 30
0.0
 11
2661.129709
 21
565.687285
 31
0.0
  0
LINE
  5
90
100
AcDbEntity
  8
2
  6
CONTINUOUS
 62
     7
100
AcDbLine
 10
2665.129709
 20
568.687285
 30
0.0
 11
2665.129709
 21
565.687285
 31
0.0
  0
LINE
  5
91
100
AcDbEntity
  8
2
  6
CONTINUOUS
 62
     7
100
AcDbLine
 10
2661.108909
 20
570.687285
 30
0.0
 11
2659.088109
 21
567.187285
 31
0.0
  0
LINE
  5
92
100
AcDbEntity
  8
2
  6
CONTINUOUS
 62
     7
100
AcDbLine
 10
2659.088109
 20
567.187285
 30
0.0
 11
2661.108909
 21
563.687285
 31
0.0
  0
LINE
  5
93
100
AcDbEntity
  8
2
  6
CONTINUOUS
 62
     7
100
AcDbLine
 10
2665.150509
 20
563.687285
 30
0.0
 11
2661.108909
 21
563.687285
 31
0.0
  0
LINE
  5
94
100
AcDbEntity
  8
2
  6
CONTINUOUS
 62
     7
100
AcDbLine
 10
2667.171309
 20
567.187285
 30
0.0
 11
2665.150509
 21
563.687285
 31
0.0
  0
LINE
  5
95
100
AcDbEntity
  8
2
  6
CONTINUOUS
 62
     7
100
AcDbLine
 10
2665.150509
 20
570.687285
 30
0.0
 11
2667.171309
 21
567.187285
 31
0.0
  0
LINE
  5
96
100
AcDbEntity
  8
2
  6
CONTINUOUS
 62
     7
100
AcDbLine
 10
2661.108909
 20
570.687285
 30
0.0
 11
2665.150509
 21
570.687285
 31
0.0
  0
LINE
  5
97
100
AcDbEntity
  8
2
  6
CONTINUOUS
 62
     7
100
AcDbLine
 10
2656.129709
 20
556.187285
 30
0.0
 11
2670.129709
 21
556.187285
 31
0.0
  0
LINE
  5
98
100
AcDbEntity
  8
2
  6
CONTINUOUS
 62
     7
100
AcDbLine
 10
2670.129709
 20
577.687285
 30
0.0
 11
2670.129709
 21
556.187285
 31
0.0
  0
LINE
  5
99
100
AcDbEntity
  8
2
  6
CONTINUOUS
 62
     7
100
AcDbLine
 10
2656.129709
 20
567.187285
 30
0.0
 11
2656.129709
 21
565.187285
 31
0.0
  0
LINE
  5
9A
100
AcDbEntity
  8
2
  6
CONTINUOUS
 62
     7
100
AcDbLine
 10
2656.129709
 20
556.187285
 30
0.0
 11
2655.129709
 21
555.187285
 31
0.0
  0
LINE
  5
9B
100
AcDbEntity
  8
2
  6
CONTINUOUS
 62
     7
100
AcDbLine
 10
2670.129709
 20
556.187285
 30
0.0
 11
2671.129709
 21
555.187285
 31
0.0
  0
LINE
  5
9C
100
AcDbEntity
  8
2
  6
CONTINUOUS
 62
     7
100
AcDbLine
 10
2652.629709
 20
565.187285
 30
0.0
 11
2656.129709
 21
565.187285
 31
0.0
  0
LINE
  5
9D
100
AcDbEntity
  8
2
  6
HIDDEN
 62
     7
100
AcDbLine
 10
2665.129709
 20
574.187285
 30
0.0
 11
2670.129709
 21
574.187285
 31
0.0
  0
LINE
  5
9E
100
AcDbEntity
  8
2
  6
CONTINUOUS
 62
     7
100
AcDbLine
 10
2670.129709
 20
565.187285
 30
0.0
 11
2673.629709
 21
565.187285
 31
0.0
  0
LINE
  5
9F
100
AcDbEntity
  8
2
  6
CONTINUOUS
 62
     7
100
AcDbLine
 10
2670.129709
 20
569.187285
 30
0.0
 11
2673.629709
 21
569.187285
 31
0.0
  0
LINE
  5
A0
100
AcDbEntity
  8
2
  6
CONTINUOUS
 62
     7
100
AcDbLine
 10
2652.629709
 20
560.187285
 30
0.0
 11
2656.129709
 21
560.187285
 31
0.0
  0
LINE
  5
A1
100
AcDbEntity
  8
2
  6
CONTINUOUS
 62
     7
100
AcDbLine
 10
2656.129709
 20
560.187285
 30
0.0
 11
2656.129709
 21
556.187285
 31
0.0
  0
LINE
  5
A2
100
AcDbEntity
  8
2
  6
HIDDEN
 62
     7
100
AcDbLine
 10
2656.129709
 20
565.187285
 30
0.0
 11
2656.129709
 21
560.187285
 31
0.0
  0
LINE
  5
A3
100
AcDbEntity
  8
2
  6
CONTINUOUS
 62
     7
100
AcDbLine
 10
2656.629709
 20
582.187285
 30
0.0
 11
2656.629709
 21
569.784885
 31
0.0
  0
LINE
  5
A4
100
AcDbEntity
  8
2
  6
CONTINUOUS
 62
     7
100
AcDbLine
 10
2654.629709
 20
545.187285
 30
0.0
 11
2655.129709
 21
548.022485
 31
0.0
  0
LINE
  5
A5
100
AcDbEntity
  8
2
  6
CONTINUOUS
 62
     7
100
AcDbLine
 10
2655.129709
 20
555.187285
 30
0.0
 11
2655.129709
 21
548.022485
 31
0.0
  0
LINE
  5
A6
100
AcDbEntity
  8
2
  6
CONTINUOUS
 62
     7
100
AcDbLine
 10
2671.129709
 20
555.187285
 30
0.0
 11
2671.129709
 21
548.022485
 31
0.0
  0
LINE
  5
A7
100
AcDbEntity
  8
2
  6
CONTINUOUS
 62
     7
100
AcDbLine
 10
2671.629709
 20
545.187285
 30
0.0
 11
2671.129709
 21
548.022485
 31
0.0
  0
LINE
  5
A8
100
AcDbEntity
  8
2
  6
CONTINUOUS
 62
     7
100
AcDbLine
 10
2665.129709
 20
577.687285
 30
0.0
 11
2670.129709
 21
577.687285
 31
0.0
  0
LINE
  5
A9
100
AcDbEntity
  8
2
  6
CONTINUOUS
 62
     7
100
AcDbLine
 10
1054.129709
 20
610.187285
 30
0.0
 11
1054.129709
 21
602.187285
 31
0.0
  0
LINE
  5
AA
100
AcDbEntity
  8
2
  6
CONTINUOUS
 62
     7
100
AcDbLine
 10
1054.129709
 20
602.187285
 30
0.0
 11
1063.129709
 21
602.187285
 31
0.0
  0
LINE
  5
AB
100
AcDbEntity
  8
2
  6
CONTINUOUS
 62
     7
100
AcDbLine
 10
1054.782509
 20
595.187285
 30
0.0
 11
1054.599309
 21
602.187285
 31
0.0
  0
LINE
  5
AC
100
AcDbEntity
  8
2
  6
CONTINUOUS
 62
     7
100
AcDbLine
 10
1055.637709
 20
595.187285
 30
0.0
 11
1055.495309
 21
600.636085
 31
0.0
  0
LINE
  5
AD
100
AcDbEntity
  8
2
  6
CONTINUOUS
 62
     7
100
AcDbLine
 10
1054.599309
 20
602.187285
 30
0.0
 11
1055.495309
 21
600.636085
 31
0.0
  0
LINE
  5
AE
100
AcDbEntity
  8
2
  6
CONTINUOUS
 62
     7
100
AcDbLine
 10
1054.640109
 20
600.636085
 30
0.0
 11
1063.129709
 21
600.636085
 31
0.0
  0
LINE
  5
AF
100
AcDbEntity
  8
2
  6
CONTINUOUS
 62
     7
100
AcDbLine
 10
1071.619309
 20
600.636085
 30
0.0
 11
1063.129709
 21
600.636085
 31
0.0
  0
LINE
  5
B0
100
AcDbEntity
  8
2
  6
CONTINUOUS
 62
     7
100
AcDbLine
 10
1072.129709
 20
610.187285
 30
0.0
 11
1072.129709
 21
602.187285
 31
0.0
  0
LINE
  5
B1
100
AcDbEntity
  8
2
  6
CONTINUOUS
 62
     7
100
AcDbLine
 10
1072.129709
 20
602.187285
 30
0.0
 11
1063.129709
 21
602.187285
 31
0.0
  0
LINE
  5
B2
100
AcDbEntity
  8
2
  6
CONTINUOUS
 62
     7
100
AcDbLine
 10
1071.476909
 20
595.187285
 30
0.0
 11
1071.660109
 21
602.187285
 31
0.0
  0
LINE
  5
B3
100
AcDbEntity
  8
2
  6
CONTINUOUS
 62
     7
100
AcDbLine
 10
1070.621709
 20
595.187285
 30
0.0
 11
1070.764909
 21
600.636085
 31
0.0
  0
LINE
  5
B4
100
AcDbEntity
  8
2
  6
CONTINUOUS
 62
     7
100
AcDbLine
 10
1071.660109
 20
602.187285
 30
0.0
 11
1070.764909
 21
600.636085
 31
0.0
  0
LINE
  5
B5
100
AcDbEntity
  8
2
  6
CENTER
 62
     7
100
AcDbLine
 10
1063.129709
 20
646.536885
 30
0.0
 11
1063.129709
 21
595.536885
 31
0.0
  0
LINE
  5
B6
100
AcDbEntity
  8
2
  6
CENTER
 62
     7
100
AcDbLine
 10
1046.504109
 20
567.187285
 30
0.0
 11
1076.848909
 21
567.187285
 31
0.0
  0
LINE
  5
B7
100
AcDbEntity
  8
2
  6
CENTER
 62
     7
100
AcDbLine
 10
1063.129709
 20
599.339285
 30
0.0
 11
1063.129709
 21
498.978485
 31
0.0
  0
LINE
  5
B8
100
AcDbEntity
  8
2
  6
CONTINUOUS
 62
     7
100
AcDbLine
 10
1052.629709
 20
595.187285
 30
0.0
 11
1073.629709
 21
595.187285
 31
0.0
  0
LINE
  5
B9
100
AcDbEntity
  8
2
  6
CONTINUOUS
 62
     7
100
AcDbLine
 10
1052.629709
 20
545.187285
 30
0.0
 11
1054.629709
 21
545.187285
 31
0.0
  0
LINE
  5
BA
100
AcDbEntity
  8
2
  6
CONTINUOUS
 62
     7
100
AcDbLine
 10
1052.629709
 20
595.187285
 30
0.0
 11
1052.629709
 21
545.187285
 31
0.0
  0
LINE
  5
BB
100
AcDbEntity
  8
2
  6
CONTINUOUS
 62
     7
100
AcDbLine
 10
1073.629709
 20
595.187285
 30
0.0
 11
1073.629709
 21
545.187285
 31
0.0
  0
LINE
  5
BC
100
AcDbEntity
  8
2
  6
CONTINUOUS
 62
     7
100
AcDbLine
 10
1071.629709
 20
545.187285
 30
0.0
 11
1073.629709
 21
545.187285
 31
0.0
  0
LINE
  5
BD
100
AcDbEntity
  8
2
  6
CONTINUOUS
 62
     7
100
AcDbLine
 10
1052.629709
 20
569.187285
 30
0.0
 11
1056.421709
 21
569.187285
 31
0.0
  0
LINE
  5
BE
100
AcDbEntity
  8
2
  6
CONTINUOUS
 62
     7
100
AcDbLine
 10
1056.629709
 20
582.187285
 30
0.0
 11
1069.629709
 21
582.187285
 31
0.0
  0
LINE
  5
BF
100
AcDbEntity
  8
2
  6
CONTINUOUS
 62
     7
100
AcDbLine
 10
1062.129709
 20
594.687285
 30
0.0
 11
1062.129709
 21
583.187285
 31
0.0
  0
LINE
  5
C0
100
AcDbEntity
  8
2
  6
CONTINUOUS
 62
     7
100
AcDbLine
 10
1064.129709
 20
594.687285
 30
0.0
 11
1064.129709
 21
583.187285
 31
0.0
  0
LINE
  5
C1
100
AcDbEntity
  8
2
  6
CONTINUOUS
 62
     7
100
AcDbLine
 10
1069.629709
 20
582.187285
 30
0.0
 11
1069.629709
 21
577.687285
 31
0.0
  0
LINE
  5
C2
100
AcDbEntity
  8
2
  6
CONTINUOUS
 62
     7
100
AcDbLine
 10
1062.129709
 20
583.187285
 30
0.0
 11
1064.129709
 21
583.187285
 31
0.0
  0
LINE
  5
C3
100
AcDbEntity
  8
2
  6
CONTINUOUS
 62
     7
100
AcDbLine
 10
1056.629709
 20
582.187285
 30
0.0
 11
1062.129709
 21
583.187285
 31
0.0
  0
LINE
  5
C4
100
AcDbEntity
  8
2
  6
CONTINUOUS
 62
     7
100
AcDbLine
 10
1064.129709
 20
583.187285
 30
0.0
 11
1069.629709
 21
582.187285
 31
0.0
  0
LINE
  5
C5
100
AcDbEntity
  8
2
  6
CONTINUOUS
 62
     7
100
AcDbLine
 10
1053.129709
 20
594.687285
 30
0.0
 11
1053.129709
 21
569.187285
 31
0.0
  0
LINE
  5
C6
100
AcDbEntity
  8
2
  6
CONTINUOUS
 62
     7
100
AcDbLine
 10
1053.129709
 20
560.187285
 30
0.0
 11
1053.129709
 21
545.687285
 31
0.0
  0
LINE
  5
C7
100
AcDbEntity
  8
2
  6
CONTINUOUS
 62
     7
100
AcDbLine
 10
1073.129709
 20
565.187285
 30
0.0
 11
1073.129709
 21
545.687285
 31
0.0
  0
LINE
  5
C8
100
AcDbEntity
  8
2
  6
CONTINUOUS
 62
     7
100
AcDbLine
 10
1073.129709
 20
594.687285
 30
0.0
 11
1073.129709
 21
569.187285
 31
0.0
  0
LINE
  5
C9
100
AcDbEntity
  8
2
  6
CONTINUOUS
 62
     7
100
AcDbLine
 10
1062.129709
 20
594.687285
 30
0.0
 11
1064.129709
 21
594.687285
 31
0.0
  0
LINE
  5
CA
100
AcDbEntity
  8
2
  6
CONTINUOUS
 62
     7
100
AcDbLine
 10
1052.629709
 20
545.687285
 30
0.0
 11
1053.129709
 21
545.687285
 31
0.0
  0
LINE
  5
CB
100
AcDbEntity
  8
2
  6
CONTINUOUS
 62
     7
100
AcDbLine
 10
1053.129709
 20
545.687285
 30
0.0
 11
1054.629709
 21
545.187285
 31
0.0
  0
LINE
  5
CC
100
AcDbEntity
  8
2
  6
CONTINUOUS
 62
     7
100
AcDbLine
 10
1052.629709
 20
594.687285
 30
0.0
 11
1053.129709
 21
594.687285
 31
0.0
  0
LINE
  5
CD
100
AcDbEntity
  8
2
  6
CONTINUOUS
 62
     7
100
AcDbLine
 10
1073.129709
 20
594.687285
 30
0.0
 11
1073.629709
 21
594.687285
 31
0.0
  0
LINE
  5
CE
100
AcDbEntity
  8
2
  6
CONTINUOUS
 62
     7
100
AcDbLine
 10
1073.129709
 20
545.687285
 30
0.0
 11
1073.629709
 21
545.687285
 31
0.0
  0
LINE
  5
CF
100
AcDbEntity
  8
2
  6
CONTINUOUS
 62
     7
100
AcDbLine
 10
1071.629709
 20
545.187285
 30
0.0
 11
1073.129709
 21
545.687285
 31
0.0
  0
LINE
  5
D0
100
AcDbEntity
  8
2
  6
CONTINUOUS
 62
     7
100
AcDbLine
 10
1065.129709
 20
577.687285
 30
0.0
 11
1065.129709
 21
574.187285
 31
0.0
  0
LINE
  5
D1
100
AcDbEntity
  8
2
  6
CONTINUOUS
 62
     7
100
AcDbLine
 10
1063.129709
 20
574.187285
 30
0.0
 11
1065.129709
 21
574.187285
 31
0.0
  0
LINE
  5
D2
100
AcDbEntity
  8
2
  6
CONTINUOUS
 62
     7
100
AcDbLine
 10
1063.129709
 20
505.187285
 30
0.0
 11
1069.129709
 21
508.651285
 31
0.0
  0
LINE
  5
D3
100
AcDbEntity
  8
2
  6
CONTINUOUS
 62
     7
100
AcDbLine
 10
1069.129709
 20
508.651285
 30
0.0
 11
1071.629709
 21
545.187285
 31
0.0
  0
LINE
  5
D4
100
AcDbEntity
  8
2
  6
CONTINUOUS
 62
     7
100
AcDbLine
 10
1057.129709
 20
508.651285
 30
0.0
 11
1054.629709
 21
545.187285
 31
0.0
  0
LINE
  5
D5
100
AcDbEntity
  8
2
  6
CONTINUOUS
 62
     7
100
AcDbLine
 10
1063.129709
 20
505.187285
 30
0.0
 11
1057.129709
 21
508.651285
 31
0.0
  0
LINE
  5
D6
100
AcDbEntity
  8
2
  6
CONTINUOUS
 62
     7
100
AcDbLine
 10
1056.992109
 20
550.187285
 30
0.0
 11
1063.129709
 21
550.187285
 31
0.0
  0
LINE
  5
D7
100
AcDbEntity
  8
2
  6
CONTINUOUS
 62
     7
100
AcDbLine
 10
1056.992109
 20
550.187285
 30
0.0
 11
1056.085709
 21
549.280885
 31
0.0
  0
LINE
  5
D8
100
AcDbEntity
  8
2
  6
CONTINUOUS
 62
     7
100
AcDbLine
 10
1069.267309
 20
550.187285
 30
0.0
 11
1063.129709
 21
550.187285
 31
0.0
  0
LINE
  5
D9
100
AcDbEntity
  8
2
  6
CONTINUOUS
 62
     7
100
AcDbLine
 10
1069.267309
 20
550.187285
 30
0.0
 11
1070.173709
 21
549.280885
 31
0.0
  0
LINE
  5
DA
100
AcDbEntity
  8
2
  6
CONTINUOUS
 62
     7
100
AcDbLine
 10
1061.129709
 20
568.687285
 30
0.0
 11
1061.129709
 21
565.687285
 31
0.0
  0
LINE
  5
DB
100
AcDbEntity
  8
2
  6
CONTINUOUS
 62
     7
100
AcDbLine
 10
1065.129709
 20
568.687285
 30
0.0
 11
1065.129709
 21
565.687285
 31
0.0
  0
LINE
  5
DC
100
AcDbEntity
  8
2
  6
CONTINUOUS
 62
     7
100
AcDbLine
 10
1061.108909
 20
570.687285
 30
0.0
 11
1059.088109
 21
567.187285
 31
0.0
  0
LINE
  5
DD
100
AcDbEntity
  8
2
  6
CONTINUOUS
 62
     7
100
AcDbLine
 10
1059.088109
 20
567.187285
 30
0.0
 11
1061.108909
 21
563.687285
 31
0.0
  0
LINE
  5
DE
100
AcDbEntity
  8
2
  6
CONTINUOUS
 62
     7
100
AcDbLine
 10
1065.150509
 20
563.687285
 30
0.0
 11
1061.108909
 21
563.687285
 31
0.0
  0
LINE
  5
DF
100
AcDbEntity
  8
2
  6
CONTINUOUS
 62
     7
100
AcDbLine
 10
1067.171309
 20
567.187285
 30
0.0
 11
1065.150509
 21
563.687285
 31
0.0
  0
LINE
  5
E0
100
AcDbEntity
  8
2
  6
CONTINUOUS
 62
     7
100
AcDbLine
 10
1065.150509
 20
570.687285
 30
0.0
 11
1067.171309
 21
567.187285
 31
0.0
  0
LINE
  5
E1
100
AcDbEntity
  8
2
  6
CONTINUOUS
 62
     7
100
AcDbLine
 10
1061.108909
 20
570.687285
 30
0.0
 11
1065.150509
 21
570.687285
 31
0.0
  0
LINE
  5
E2
100
AcDbEntity
  8
2
  6
CONTINUOUS
 62
     7
100
AcDbLine
 10
1056.129709
 20
556.187285
 30
0.0
 11
1070.129709
 21
556.187285
 31
0.0
  0
LINE
  5
E3
100
AcDbEntity
  8
2
  6
CONTINUOUS
 62
     7
100
AcDbLine
 10
1070.129709
 20
577.687285
 30
0.0
 11
1070.129709
 21
556.187285
 31
0.0
  0
LINE
  5
E4
100
AcDbEntity
  8
2
  6
CONTINUOUS
 62
     7
100
AcDbLine
 10
1056.129709
 20
567.187285
 30
0.0
 11
1056.129709
 21
565.187285
 31
0.0
  0
LINE
  5
E5
100
AcDbEntity
  8
2
  6
CONTINUOUS
 62
     7
100
AcDbLine
 10
1056.129709
 20
556.187285
 30
0.0
 11
1055.129709
 21
555.187285
 31
0.0
  0
LINE
  5
E6
100
AcDbEntity
  8
2
  6
CONTINUOUS
 62
     7
100
AcDbLine
 10
1070.129709
 20
556.187285
 30
0.0
 11
1071.129709
 21
555.187285
 31
0.0
  0
LINE
  5
E7
100
AcDbEntity
  8
2
  6
CONTINUOUS
 62
     7
100
AcDbLine
 10
1052.629709
 20
565.187285
 30
0.0
 11
1056.129709
 21
565.187285
 31
0.0
  0
LINE
  5
E8
100
AcDbEntity
  8
2
  6
HIDDEN
 62
     7
100
AcDbLine
 10
1065.129709
 20
574.187285
 30
0.0
 11
1070.129709
 21
574.187285
 31
0.0
  0
LINE
  5
E9
100
AcDbEntity
  8
2
  6
CONTINUOUS
 62
     7
100
AcDbLine
 10
1070.129709
 20
565.187285
 30
0.0
 11
1073.629709
 21
565.187285
 31
0.0
  0
LINE
  5
EA
100
AcDbEntity
  8
2
  6
CONTINUOUS
 62
     7
100
AcDbLine
 10
1070.129709
 20
569.187285
 30
0.0
 11
1073.629709
 21
569.187285
 31
0.0
  0
LINE
  5
EB
100
AcDbEntity
  8
2
  6
CONTINUOUS
 62
     7
100
AcDbLine
 10
1052.629709
 20
560.187285
 30
0.0
 11
1056.129709
 21
560.187285
 31
0.0
  0
LINE
  5
EC
100
AcDbEntity
  8
2
  6
CONTINUOUS
 62
     7
100
AcDbLine
 10
1056.129709
 20
560.187285
 30
0.0
 11
1056.129709
 21
556.187285
 31
0.0
  0
LINE
  5
ED
100
AcDbEntity
  8
2
  6
HIDDEN
 62
     7
100
AcDbLine
 10
1056.129709
 20
565.187285
 30
0.0
 11
1056.129709
 21
560.187285
 31
0.0
  0
LINE
  5
EE
100
AcDbEntity
  8
2
  6
CONTINUOUS
 62
     7
100
AcDbLine
 10
1056.629709
 20
582.187285
 30
0.0
 11
1056.629709
 21
569.784885
 31
0.0
  0
LINE
  5
EF
100
AcDbEntity
  8
2
  6
CONTINUOUS
 62
     7
100
AcDbLine
 10
1054.629709
 20
545.187285
 30
0.0
 11
1055.129709
 21
548.022485
 31
0.0
  0
LINE
  5
F0
100
AcDbEntity
  8
2
  6
CONTINUOUS
 62
     7
100
AcDbLine
 10
1055.129709
 20
555.187285
 30
0.0
 11
1055.129709
 21
548.022485
 31
0.0
  0
LINE
  5
F1
100
AcDbEntity
  8
2
  6
CONTINUOUS
 62
     7
100
AcDbLine
 10
1071.129709
 20
555.187285
 30
0.0
 11
1071.129709
 21
548.022485
 31
0.0
  0
LINE
  5
F2
100
AcDbEntity
  8
2
  6
CONTINUOUS
 62
     7
100
AcDbLine
 10
1071.629709
 20
545.187285
 30
0.0
 11
1071.129709
 21
548.022485
 31
0.0
  0
LINE
  5
F3
100
AcDbEntity
  8
2
  6
CONTINUOUS
 62
     7
100
AcDbLine
 10
1065.129709
 20
577.687285
 30
0.0
 11
1070.129709
 21
577.687285
 31
0.0
  0
LINE
  5
F4
100
AcDbEntity
  8
2
  6
CONTINUOUS
 62
     7
100
AcDbLine
 10
1054.129709
 20
607.187285
 30
0.0
 11
1051.129709
 21
610.187285
 31
0.0
  0
LINE
  5
F5
100
AcDbEntity
  8
2
  6
CONTINUOUS
 62
     7
100
AcDbLine
 10
1072.129709
 20
607.187285
 30
0.0
 11
1075.129709
 21
610.187285
 31
0.0
  0
LINE
  5
F6
100
AcDbEntity
  8
2
  6
CONTINUOUS
 62
     7
100
AcDbLine
 10
1172.129709
 20
610.187285
 30
0.0
 11
1354.129709
 21
610.187285
 31
0.0
  0
LINE
  5
F7
100
AcDbEntity
  8
2
  6
CONTINUOUS
 62
     7
100
AcDbLine
 10
1454.129709
 20
610.187285
 30
0.0
 11
1454.129709
 21
602.187285
 31
0.0
  0
LINE
  5
F8
100
AcDbEntity
  8
2
  6
CONTINUOUS
 62
     7
100
AcDbLine
 10
1454.129709
 20
602.187285
 30
0.0
 11
1463.129709
 21
602.187285
 31
0.0
  0
LINE
  5
F9
100
AcDbEntity
  8
2
  6
CONTINUOUS
 62
     7
100
AcDbLine
 10
1454.782509
 20
595.187285
 30
0.0
 11
1454.599309
 21
602.187285
 31
0.0
  0
LINE
  5
FA
100
AcDbEntity
  8
2
  6
CONTINUOUS
 62
     7
100
AcDbLine
 10
1455.637709
 20
595.187285
 30
0.0
 11
1455.495309
 21
600.636085
 31
0.0
  0
LINE
  5
FB
100
AcDbEntity
  8
2
  6
CONTINUOUS
 62
     7
100
AcDbLine
 10
1454.599309
 20
602.187285
 30
0.0
 11
1455.495309
 21
600.636085
 31
0.0
  0
LINE
  5
FC
100
AcDbEntity
  8
2
  6
CONTINUOUS
 62
     7
100
AcDbLine
 10
1454.640109
 20
600.636085
 30
0.0
 11
1463.129709
 21
600.636085
 31
0.0
  0
LINE
  5
FD
100
AcDbEntity
  8
2
  6
CONTINUOUS
 62
     7
100
AcDbLine
 10
1471.619309
 20
600.636085
 30
0.0
 11
1463.129709
 21
600.636085
 31
0.0
  0
LINE
  5
FE
100
AcDbEntity
  8
2
  6
CONTINUOUS
 62
     7
100
AcDbLine
 10
1472.129709
 20
610.187285
 30
0.0
 11
1472.129709
 21
602.187285
 31
0.0
  0
LINE
  5
FF
100
AcDbEntity
  8
2
  6
CONTINUOUS
 62
     7
100
AcDbLine
 10
1472.129709
 20
602.187285
 30
0.0
 11
1463.129709
 21
602.187285
 31
0.0
  0
LINE
  5
100
100
AcDbEntity
  8
2
  6
CONTINUOUS
 62
     7
100
AcDbLine
 10
1471.476909
 20
595.187285
 30
0.0
 11
1471.660109
 21
602.187285
 31
0.0
  0
LINE
  5
101
100
AcDbEntity
  8
2
  6
CONTINUOUS
 62
     7
100
AcDbLine
 10
1470.621709
 20
595.187285
 30
0.0
 11
1470.764109
 21
600.636085
 31
0.0
  0
LINE
  5
102
100
AcDbEntity
  8
2
  6
CONTINUOUS
 62
     7
100
AcDbLine
 10
1471.660109
 20
602.187285
 30
0.0
 11
1470.764909
 21
600.636085
 31
0.0
  0
LINE
  5
103
100
AcDbEntity
  8
2
  6
CONTINUOUS
 62
     7
100
AcDbLine
 10
1472.129709
 20
607.187285
 30
0.0
 11
1475.129709
 21
610.187285
 31
0.0
  0
LINE
  5
104
100
AcDbEntity
  8
2
  6
CONTINUOUS
 62
     7
100
AcDbLine
 10
1454.129709
 20
607.187285
 30
0.0
 11
1451.129709
 21
610.187285
 31
0.0
  0
LINE
  5
105
100
AcDbEntity
  8
2
  6
CENTER
 62
     7
100
AcDbLine
 10
1463.129709
 20
646.536885
 30
0.0
 11
1463.129709
 21
595.536885
 31
0.0
  0
LINE
  5
106
100
AcDbEntity
  8
2
  6
CENTER
 62
     7
100
AcDbLine
 10
1446.504109
 20
567.187285
 30
0.0
 11
1476.848909
 21
567.187285
 31
0.0
  0
LINE
  5
107
100
AcDbEntity
  8
2
  6
CENTER
 62
     7
100
AcDbLine
 10
1463.129709
 20
599.339285
 30
0.0
 11
1463.129709
 21
498.978485
 31
0.0
  0
LINE
  5
108
100
AcDbEntity
  8
2
  6
CONTINUOUS
 62
     7
100
AcDbLine
 10
1452.629709
 20
595.187285
 30
0.0
 11
1473.629709
 21
595.187285
 31
0.0
  0
LINE
  5
109
100
AcDbEntity
  8
2
  6
CONTINUOUS
 62
     7
100
AcDbLine
 10
1452.629709
 20
545.187285
 30
0.0
 11
1454.629709
 21
545.187285
 31
0.0
  0
LINE
  5
10A
100
AcDbEntity
  8
2
  6
CONTINUOUS
 62
     7
100
AcDbLine
 10
1452.629709
 20
595.187285
 30
0.0
 11
1452.629709
 21
545.187285
 31
0.0
  0
LINE
  5
10B
100
AcDbEntity
  8
2
  6
CONTINUOUS
 62
     7
100
AcDbLine
 10
1473.629709
 20
595.187285
 30
0.0
 11
1473.629709
 21
545.187285
 31
0.0
  0
LINE
  5
10C
100
AcDbEntity
  8
2
  6
CONTINUOUS
 62
     7
100
AcDbLine
 10
1471.629709
 20
545.187285
 30
0.0
 11
1473.629709
 21
545.187285
 31
0.0
  0
LINE
  5
10D
100
AcDbEntity
  8
2
  6
CONTINUOUS
 62
     7
100
AcDbLine
 10
1452.629709
 20
569.187285
 30
0.0
 11
1456.421709
 21
569.187285
 31
0.0
  0
LINE
  5
10E
100
AcDbEntity
  8
2
  6
CONTINUOUS
 62
     7
100
AcDbLine
 10
1456.629709
 20
582.187285
 30
0.0
 11
1469.629709
 21
582.187285
 31
0.0
  0
LINE
  5
10F
100
AcDbEntity
  8
2
  6
CONTINUOUS
 62
     7
100
AcDbLine
 10
1462.129709
 20
594.687285
 30
0.0
 11
1462.129709
 21
583.187285
 31
0.0
  0
LINE
  5
110
100
AcDbEntity
  8
2
  6
CONTINUOUS
 62
     7
100
AcDbLine
 10
1464.129709
 20
594.687285
 30
0.0
 11
1464.129709
 21
583.187285
 31
0.0
  0
LINE
  5
111
100
AcDbEntity
  8
2
  6
CONTINUOUS
 62
     7
100
AcDbLine
 10
1469.629709
 20
582.187285
 30
0.0
 11
1469.629709
 21
577.687285
 31
0.0
  0
LINE
  5
112
100
AcDbEntity
  8
2
  6
CONTINUOUS
 62
     7
100
AcDbLine
 10
1462.129709
 20
583.187285
 30
0.0
 11
1464.129709
 21
583.187285
 31
0.0
  0
LINE
  5
113
100
AcDbEntity
  8
2
  6
CONTINUOUS
 62
     7
100
AcDbLine
 10
1456.629709
 20
582.187285
 30
0.0
 11
1462.129709
 21
583.187285
 31
0.0
  0
LINE
  5
114
100
AcDbEntity
  8
2
  6
CONTINUOUS
 62
     7
100
AcDbLine
 10
1464.129709
 20
583.187285
 30
0.0
 11
1469.629709
 21
582.187285
 31
0.0
  0
LINE
  5
115
100
AcDbEntity
  8
2
  6
CONTINUOUS
 62
     7
100
AcDbLine
 10
1453.129709
 20
594.687285
 30
0.0
 11
1453.129709
 21
569.187285
 31
0.0
  0
LINE
  5
116
100
AcDbEntity
  8
2
  6
CONTINUOUS
 62
     7
100
AcDbLine
 10
1453.129709
 20
560.187285
 30
0.0
 11
1453.129709
 21
545.687285
 31
0.0
  0
LINE
  5
117
100
AcDbEntity
  8
2
  6
CONTINUOUS
 62
     7
100
AcDbLine
 10
1473.129709
 20
565.187285
 30
0.0
 11
1473.129709
 21
545.687285
 31
0.0
  0
LINE
  5
118
100
AcDbEntity
  8
2
  6
CONTINUOUS
 62
     7
100
AcDbLine
 10
1473.129709
 20
594.687285
 30
0.0
 11
1473.129709
 21
569.187285
 31
0.0
  0
LINE
  5
119
100
AcDbEntity
  8
2
  6
CONTINUOUS
 62
     7
100
AcDbLine
 10
1462.129709
 20
594.687285
 30
0.0
 11
1464.129709
 21
594.687285
 31
0.0
  0
LINE
  5
11A
100
AcDbEntity
  8
2
  6
CONTINUOUS
 62
     7
100
AcDbLine
 10
1452.629709
 20
545.687285
 30
0.0
 11
1453.129709
 21
545.687285
 31
0.0
  0
LINE
  5
11B
100
AcDbEntity
  8
2
  6
CONTINUOUS
 62
     7
100
AcDbLine
 10
1453.129709
 20
545.687285
 30
0.0
 11
1454.629709
 21
545.187285
 31
0.0
  0
LINE
  5
11C
100
AcDbEntity
  8
2
  6
CONTINUOUS
 62
     7
100
AcDbLine
 10
1452.629709
 20
594.687285
 30
0.0
 11
1453.129709
 21
594.687285
 31
0.0
  0
LINE
  5
11D
100
AcDbEntity
  8
2
  6
CONTINUOUS
 62
     7
100
AcDbLine
 10
1473.129709
 20
594.687285
 30
0.0
 11
1473.629709
 21
594.687285
 31
0.0
  0
LINE
  5
11E
100
AcDbEntity
  8
2
  6
CONTINUOUS
 62
     7
100
AcDbLine
 10
1473.129709
 20
545.687285
 30
0.0
 11
1473.629709
 21
545.687285
 31
0.0
  0
LINE
  5
11F
100
AcDbEntity
  8
2
  6
CONTINUOUS
 62
     7
100
AcDbLine
 10
1471.629709
 20
545.187285
 30
0.0
 11
1473.129709
 21
545.687285
 31
0.0
  0
LINE
  5
120
100
AcDbEntity
  8
2
  6
CONTINUOUS
 62
     7
100
AcDbLine
 10
1465.129709
 20
577.687285
 30
0.0
 11
1465.129709
 21
574.187285
 31
0.0
  0
LINE
  5
121
100
AcDbEntity
  8
2
  6
CONTINUOUS
 62
     7
100
AcDbLine
 10
1463.129709
 20
574.187285
 30
0.0
 11
1465.129709
 21
574.187285
 31
0.0
  0
LINE
  5
122
100
AcDbEntity
  8
2
  6
CONTINUOUS
 62
     7
100
AcDbLine
 10
1463.129709
 20
505.187285
 30
0.0
 11
1469.129709
 21
508.651285
 31
0.0
  0
LINE
  5
123
100
AcDbEntity
  8
2
  6
CONTINUOUS
 62
     7
100
AcDbLine
 10
1469.129709
 20
508.651285
 30
0.0
 11
1471.629709
 21
545.187285
 31
0.0
  0
LINE
  5
124
100
AcDbEntity
  8
2
  6
CONTINUOUS
 62
     7
100
AcDbLine
 10
1457.129709
 20
508.651285
 30
0.0
 11
1454.629709
 21
545.187285
 31
0.0
  0
LINE
  5
125
100
AcDbEntity
  8
2
  6
CONTINUOUS
 62
     7
100
AcDbLine
 10
1463.129709
 20
505.187285
 30
0.0
 11
1457.129709
 21
508.651285
 31
0.0
  0
LINE
  5
126
100
AcDbEntity
  8
2
  6
CONTINUOUS
 62
     7
100
AcDbLine
 10
1456.992109
 20
550.187285
 30
0.0
 11
1463.129709
 21
550.187285
 31
0.0
  0
LINE
  5
127
100
AcDbEntity
  8
2
  6
CONTINUOUS
 62
     7
100
AcDbLine
 10
1456.992109
 20
550.187285
 30
0.0
 11
1456.085709
 21
549.280885
 31
0.0
  0
LINE
  5
128
100
AcDbEntity
  8
2
  6
CONTINUOUS
 62
     7
100
AcDbLine
 10
1469.267309
 20
550.187285
 30
0.0
 11
1463.129709
 21
550.187285
 31
0.0
  0
LINE
  5
129
100
AcDbEntity
  8
2
  6
CONTINUOUS
 62
     7
100
AcDbLine
 10
1469.267309
 20
550.187285
 30
0.0
 11
1470.173709
 21
549.280885
 31
0.0
  0
LINE
  5
12A
100
AcDbEntity
  8
2
  6
CONTINUOUS
 62
     7
100
AcDbLine
 10
1461.129709
 20
568.687285
 30
0.0
 11
1461.129709
 21
565.687285
 31
0.0
  0
LINE
  5
12B
100
AcDbEntity
  8
2
  6
CONTINUOUS
 62
     7
100
AcDbLine
 10
1465.129709
 20
568.687285
 30
0.0
 11
1465.129709
 21
565.687285
 31
0.0
  0
LINE
  5
12C
100
AcDbEntity
  8
2
  6
CONTINUOUS
 62
     7
100
AcDbLine
 10
1461.108909
 20
570.687285
 30
0.0
 11
1459.088109
 21
567.187285
 31
0.0
  0
LINE
  5
12D
100
AcDbEntity
  8
2
  6
CONTINUOUS
 62
     7
100
AcDbLine
 10
1459.088109
 20
567.187285
 30
0.0
 11
1461.108909
 21
563.687285
 31
0.0
  0
LINE
  5
12E
100
AcDbEntity
  8
2
  6
CONTINUOUS
 62
     7
100
AcDbLine
 10
1465.150509
 20
563.687285
 30
0.0
 11
1461.108909
 21
563.687285
 31
0.0
  0
LINE
  5
12F
100
AcDbEntity
  8
2
  6
CONTINUOUS
 62
     7
100
AcDbLine
 10
1467.171309
 20
567.187285
 30
0.0
 11
1465.150509
 21
563.687285
 31
0.0
  0
LINE
  5
130
100
AcDbEntity
  8
2
  6
CONTINUOUS
 62
     7
100
AcDbLine
 10
1465.150509
 20
570.687285
 30
0.0
 11
1467.171309
 21
567.187285
 31
0.0
  0
LINE
  5
131
100
AcDbEntity
  8
2
  6
CONTINUOUS
 62
     7
100
AcDbLine
 10
1461.108909
 20
570.687285
 30
0.0
 11
1465.150509
 21
570.687285
 31
0.0
  0
LINE
  5
132
100
AcDbEntity
  8
2
  6
CONTINUOUS
 62
     7
100
AcDbLine
 10
1456.129709
 20
556.187285
 30
0.0
 11
1470.129709
 21
556.187285
 31
0.0
  0
LINE
  5
133
100
AcDbEntity
  8
2
  6
CONTINUOUS
 62
     7
100
AcDbLine
 10
1470.129709
 20
577.687285
 30
0.0
 11
1470.129709
 21
556.187285
 31
0.0
  0
LINE
  5
134
100
AcDbEntity
  8
2
  6
CONTINUOUS
 62
     7
100
AcDbLine
 10
1456.129709
 20
567.187285
 30
0.0
 11
1456.129709
 21
565.187285
 31
0.0
  0
LINE
  5
135
100
AcDbEntity
  8
2
  6
CONTINUOUS
 62
     7
100
AcDbLine
 10
1456.129709
 20
556.187285
 30
0.0
 11
1455.129709
 21
555.187285
 31
0.0
  0
LINE
  5
136
100
AcDbEntity
  8
2
  6
CONTINUOUS
 62
     7
100
AcDbLine
 10
1470.129709
 20
556.187285
 30
0.0
 11
1471.129709
 21
555.187285
 31
0.0
  0
LINE
  5
137
100
AcDbEntity
  8
2
  6
CONTINUOUS
 62
     7
100
AcDbLine
 10
1452.629709
 20
565.187285
 30
0.0
 11
1456.129709
 21
565.187285
 31
0.0
  0
LINE
  5
138
100
AcDbEntity
  8
2
  6
HIDDEN
 62
     7
100
AcDbLine
 10
1465.129709
 20
574.187285
 30
0.0
 11
1470.129709
 21
574.187285
 31
0.0
  0
LINE
  5
139
100
AcDbEntity
  8
2
  6
CONTINUOUS
 62
     7
100
AcDbLine
 10
1470.129709
 20
565.187285
 30
0.0
 11
1473.629709
 21
565.187285
 31
0.0
  0
LINE
  5
13A
100
AcDbEntity
  8
2
  6
CONTINUOUS
 62
     7
100
AcDbLine
 10
1470.129709
 20
569.187285
 30
0.0
 11
1473.629709
 21
569.187285
 31
0.0
  0
LINE
  5
13B
100
AcDbEntity
  8
2
  6
CONTINUOUS
 62
     7
100
AcDbLine
 10
1452.629709
 20
560.187285
 30
0.0
 11
1456.129709
 21
560.187285
 31
0.0
  0
LINE
  5
13C
100
AcDbEntity
  8
2
  6
CONTINUOUS
 62
     7
100
AcDbLine
 10
1456.129709
 20
560.187285
 30
0.0
 11
1456.129709
 21
556.187285
 31
0.0
  0
LINE
  5
13D
100
AcDbEntity
  8
2
  6
HIDDEN
 62
     7
100
AcDbLine
 10
1456.129709
 20
565.187285
 30
0.0
 11
1456.129709
 21
560.187285
 31
0.0
  0
LINE
  5
13E
100
AcDbEntity
  8
2
  6
CONTINUOUS
 62
     7
100
AcDbLine
 10
1456.629709
 20
582.187285
 30
0.0
 11
1456.629709
 21
569.784885
 31
0.0
  0
LINE
  5
13F
100
AcDbEntity
  8
2
  6
CONTINUOUS
 62
     7
100
AcDbLine
 10
1454.629709
 20
545.187285
 30
0.0
 11
1455.129709
 21
548.022485
 31
0.0
  0
LINE
  5
140
100
AcDbEntity
  8
2
  6
CONTINUOUS
 62
     7
100
AcDbLine
 10
1455.129709
 20
555.187285
 30
0.0
 11
1455.129709
 21
548.022485
 31
0.0
  0
LINE
  5
141
100
AcDbEntity
  8
2
  6
CONTINUOUS
 62
     7
100
AcDbLine
 10
1471.129709
 20
555.187285
 30
0.0
 11
1471.129709
 21
548.022485
 31
0.0
  0
LINE
  5
142
100
AcDbEntity
  8
2
  6
CONTINUOUS
 62
     7
100
AcDbLine
 10
1471.629709
 20
545.187285
 30
0.0
 11
1471.129709
 21
548.022485
 31
0.0
  0
LINE
  5
143
100
AcDbEntity
  8
2
  6
CONTINUOUS
 62
     7
100
AcDbLine
 10
1465.129709
 20
577.687285
 30
0.0
 11
1470.129709
 21
577.687285
 31
0.0
  0
LINE
  5
144
100
AcDbEntity
  8
2
  6
CONTINUOUS
 62
     7
100
AcDbLine
 10
1572.129709
 20
610.187285
 30
0.0
 11
1754.129709
 21
610.187285
 31
0.0
  0
LINE
  5
145
100
AcDbEntity
  8
2
  6
CONTINUOUS
 62
     7
100
AcDbLine
 10
1854.129709
 20
610.187285
 30
0.0
 11
1854.129709
 21
602.187285
 31
0.0
  0
LINE
  5
146
100
AcDbEntity
  8
2
  6
CONTINUOUS
 62
     7
100
AcDbLine
 10
1854.129709
 20
602.187285
 30
0.0
 11
1863.129709
 21
602.187285
 31
0.0
  0
LINE
  5
147
100
AcDbEntity
  8
2
  6
CONTINUOUS
 62
     7
100
AcDbLine
 10
1854.782509
 20
595.187285
 30
0.0
 11
1854.599309
 21
602.187285
 31
0.0
  0
LINE
  5
148
100
AcDbEntity
  8
2
  6
CONTINUOUS
 62
     7
100
AcDbLine
 10
1855.637709
 20
595.187285
 30
0.0
 11
1855.495309
 21
600.636085
 31
0.0
  0
LINE
  5
149
100
AcDbEntity
  8
2
  6
CONTINUOUS
 62
     7
100
AcDbLine
 10
1854.599309
 20
602.187285
 30
0.0
 11
1855.495309
 21
600.636085
 31
0.0
  0
LINE
  5
14A
100
AcDbEntity
  8
2
  6
CONTINUOUS
 62
     7
100
AcDbLine
 10
1854.640109
 20
600.636085
 30
0.0
 11
1863.129709
 21
600.636085
 31
0.0
  0
LINE
  5
14B
100
AcDbEntity
  8
2
  6
CONTINUOUS
 62
     7
100
AcDbLine
 10
1871.619309
 20
600.636085
 30
0.0
 11
1863.129709
 21
600.636085
 31
0.0
  0
LINE
  5
14C
100
AcDbEntity
  8
2
  6
CONTINUOUS
 62
     7
100
AcDbLine
 10
1872.129709
 20
610.187285
 30
0.0
 11
1872.129709
 21
602.187285
 31
0.0
  0
LINE
  5
14D
100
AcDbEntity
  8
2
  6
CONTINUOUS
 62
     7
100
AcDbLine
 10
1872.129709
 20
602.187285
 30
0.0
 11
1863.129709
 21
602.187285
 31
0.0
  0
LINE
  5
14E
100
AcDbEntity
  8
2
  6
CONTINUOUS
 62
     7
100
AcDbLine
 10
1871.476909
 20
595.187285
 30
0.0
 11
1871.660109
 21
602.187285
 31
0.0
  0
LINE
  5
14F
100
AcDbEntity
  8
2
  6
CONTINUOUS
 62
     7
100
AcDbLine
 10
1870.621709
 20
595.187285
 30
0.0
 11
1870.764109
 21
600.636085
 31
0.0
  0
LINE
  5
150
100
AcDbEntity
  8
2
  6
CONTINUOUS
 62
     7
100
AcDbLine
 10
1871.660109
 20
602.187285
 30
0.0
 11
1870.764109
 21
600.636085
 31
0.0
  0
LINE
  5
151
100
AcDbEntity
  8
2
  6
CONTINUOUS
 62
     7
100
AcDbLine
 10
1872.129709
 20
607.187285
 30
0.0
 11
1875.129709
 21
610.187285
 31
0.0
  0
LINE
  5
152
100
AcDbEntity
  8
2
  6
CONTINUOUS
 62
     7
100
AcDbLine
 10
1854.129709
 20
607.187285
 30
0.0
 11
1851.129709
 21
610.187285
 31
0.0
  0
LINE
  5
153
100
AcDbEntity
  8
2
  6
CENTER
 62
     7
100
AcDbLine
 10
1863.129709
 20
646.536885
 30
0.0
 11
1863.129709
 21
595.536885
 31
0.0
  0
LINE
  5
154
100
AcDbEntity
  8
2
  6
CENTER
 62
     7
100
AcDbLine
 10
1846.504109
 20
567.187285
 30
0.0
 11
1876.848909
 21
567.187285
 31
0.0
  0
LINE
  5
155
100
AcDbEntity
  8
2
  6
CENTER
 62
     7
100
AcDbLine
 10
1863.129709
 20
599.339285
 30
0.0
 11
1863.129709
 21
498.978485
 31
0.0
  0
LINE
  5
156
100
AcDbEntity
  8
2
  6
CONTINUOUS
 62
     7
100
AcDbLine
 10
1852.629709
 20
595.187285
 30
0.0
 11
1873.629709
 21
595.187285
 31
0.0
  0
LINE
  5
157
100
AcDbEntity
  8
2
  6
CONTINUOUS
 62
     7
100
AcDbLine
 10
1852.629709
 20
545.187285
 30
0.0
 11
1854.629709
 21
545.187285
 31
0.0
  0
LINE
  5
158
100
AcDbEntity
  8
2
  6
CONTINUOUS
 62
     7
100
AcDbLine
 10
1852.629709
 20
595.187285
 30
0.0
 11
1852.629709
 21
545.187285
 31
0.0
  0
LINE
  5
159
100
AcDbEntity
  8
2
  6
CONTINUOUS
 62
     7
100
AcDbLine
 10
1873.629709
 20
595.187285
 30
0.0
 11
1873.629709
 21
545.187285
 31
0.0
  0
LINE
  5
15A
100
AcDbEntity
  8
2
  6
CONTINUOUS
 62
     7
100
AcDbLine
 10
1871.629709
 20
545.187285
 30
0.0
 11
1873.629709
 21
545.187285
 31
0.0
  0
LINE
  5
15B
100
AcDbEntity
  8
2
  6
CONTINUOUS
 62
     7
100
AcDbLine
 10
1852.629709
 20
569.187285
 30
0.0
 11
1856.421709
 21
569.187285
 31
0.0
  0
LINE
  5
15C
100
AcDbEntity
  8
2
  6
CONTINUOUS
 62
     7
100
AcDbLine
 10
1856.629709
 20
582.187285
 30
0.0
 11
1869.629709
 21
582.187285
 31
0.0
  0
LINE
  5
15D
100
AcDbEntity
  8
2
  6
CONTINUOUS
 62
     7
100
AcDbLine
 10
1862.129709
 20
594.687285
 30
0.0
 11
1862.129709
 21
583.187285
 31
0.0
  0
LINE
  5
15E
100
AcDbEntity
  8
2
  6
CONTINUOUS
 62
     7
100
AcDbLine
 10
1864.129709
 20
594.687285
 30
0.0
 11
1864.129709
 21
583.187285
 31
0.0
  0
LINE
  5
15F
100
AcDbEntity
  8
2
  6
CONTINUOUS
 62
     7
100
AcDbLine
 10
1869.629709
 20
582.187285
 30
0.0
 11
1869.629709
 21
577.687285
 31
0.0
  0
LINE
  5
160
100
AcDbEntity
  8
2
  6
CONTINUOUS
 62
     7
100
AcDbLine
 10
1862.129709
 20
583.187285
 30
0.0
 11
1864.129709
 21
583.187285
 31
0.0
  0
LINE
  5
161
100
AcDbEntity
  8
2
  6
CONTINUOUS
 62
     7
100
AcDbLine
 10
1856.629709
 20
582.187285
 30
0.0
 11
1862.129709
 21
583.187285
 31
0.0
  0
LINE
  5
162
100
AcDbEntity
  8
2
  6
CONTINUOUS
 62
     7
100
AcDbLine
 10
1864.129709
 20
583.187285
 30
0.0
 11
1869.629709
 21
582.187285
 31
0.0
  0
LINE
  5
163
100
AcDbEntity
  8
2
  6
CONTINUOUS
 62
     7
100
AcDbLine
 10
1853.129709
 20
594.687285
 30
0.0
 11
1853.129709
 21
569.187285
 31
0.0
  0
LINE
  5
164
100
AcDbEntity
  8
2
  6
CONTINUOUS
 62
     7
100
AcDbLine
 10
1853.129709
 20
560.187285
 30
0.0
 11
1853.129709
 21
545.687285
 31
0.0
  0
LINE
  5
165
100
AcDbEntity
  8
2
  6
CONTINUOUS
 62
     7
100
AcDbLine
 10
1873.129709
 20
565.187285
 30
0.0
 11
1873.129709
 21
545.687285
 31
0.0
  0
LINE
  5
166
100
AcDbEntity
  8
2
  6
CONTINUOUS
 62
     7
100
AcDbLine
 10
1873.129709
 20
594.687285
 30
0.0
 11
1873.129709
 21
569.187285
 31
0.0
  0
LINE
  5
167
100
AcDbEntity
  8
2
  6
CONTINUOUS
 62
     7
100
AcDbLine
 10
1862.129709
 20
594.687285
 30
0.0
 11
1864.129709
 21
594.687285
 31
0.0
  0
LINE
  5
168
100
AcDbEntity
  8
2
  6
CONTINUOUS
 62
     7
100
AcDbLine
 10
1852.629709
 20
545.687285
 30
0.0
 11
1853.129709
 21
545.687285
 31
0.0
  0
LINE
  5
169
100
AcDbEntity
  8
2
  6
CONTINUOUS
 62
     7
100
AcDbLine
 10
1853.129709
 20
545.687285
 30
0.0
 11
1854.629709
 21
545.187285
 31
0.0
  0
LINE
  5
16A
100
AcDbEntity
  8
2
  6
CONTINUOUS
 62
     7
100
AcDbLine
 10
1852.629709
 20
594.687285
 30
0.0
 11
1853.129709
 21
594.687285
 31
0.0
  0
LINE
  5
16B
100
AcDbEntity
  8
2
  6
CONTINUOUS
 62
     7
100
AcDbLine
 10
1873.129709
 20
594.687285
 30
0.0
 11
1873.629709
 21
594.687285
 31
0.0
  0
LINE
  5
16C
100
AcDbEntity
  8
2
  6
CONTINUOUS
 62
     7
100
AcDbLine
 10
1873.129709
 20
545.687285
 30
0.0
 11
1873.629709
 21
545.687285
 31
0.0
  0
LINE
  5
16D
100
AcDbEntity
  8
2
  6
CONTINUOUS
 62
     7
100
AcDbLine
 10
1871.629709
 20
545.187285
 30
0.0
 11
1873.129709
 21
545.687285
 31
0.0
  0
LINE
  5
16E
100
AcDbEntity
  8
2
  6
CONTINUOUS
 62
     7
100
AcDbLine
 10
1865.129709
 20
577.687285
 30
0.0
 11
1865.129709
 21
574.187285
 31
0.0
  0
LINE
  5
16F
100
AcDbEntity
  8
2
  6
CONTINUOUS
 62
     7
100
AcDbLine
 10
1863.129709
 20
574.187285
 30
0.0
 11
1865.129709
 21
574.187285
 31
0.0
  0
LINE
  5
170
100
AcDbEntity
  8
2
  6
CONTINUOUS
 62
     7
100
AcDbLine
 10
1863.129709
 20
505.187285
 30
0.0
 11
1869.129709
 21
508.651285
 31
0.0
  0
LINE
  5
171
100
AcDbEntity
  8
2
  6
CONTINUOUS
 62
     7
100
AcDbLine
 10
1869.129709
 20
508.651285
 30
0.0
 11
1871.629709
 21
545.187285
 31
0.0
  0
LINE
  5
172
100
AcDbEntity
  8
2
  6
CONTINUOUS
 62
     7
100
AcDbLine
 10
1857.129709
 20
508.651285
 30
0.0
 11
1854.629709
 21
545.187285
 31
0.0
  0
LINE
  5
173
100
AcDbEntity
  8
2
  6
CONTINUOUS
 62
     7
100
AcDbLine
 10
1863.129709
 20
505.187285
 30
0.0
 11
1857.129709
 21
508.651285
 31
0.0
  0
LINE
  5
174
100
AcDbEntity
  8
2
  6
CONTINUOUS
 62
     7
100
AcDbLine
 10
1856.992109
 20
550.187285
 30
0.0
 11
1863.129709
 21
550.187285
 31
0.0
  0
LINE
  5
175
100
AcDbEntity
  8
2
  6
CONTINUOUS
 62
     7
100
AcDbLine
 10
1856.992109
 20
550.187285
 30
0.0
 11
1856.085709
 21
549.280885
 31
0.0
  0
LINE
  5
176
100
AcDbEntity
  8
2
  6
CONTINUOUS
 62
     7
100
AcDbLine
 10
1869.267309
 20
550.187285
 30
0.0
 11
1863.129709
 21
550.187285
 31
0.0
  0
LINE
  5
177
100
AcDbEntity
  8
2
  6
CONTINUOUS
 62
     7
100
AcDbLine
 10
1869.267309
 20
550.187285
 30
0.0
 11
1870.173709
 21
549.280885
 31
0.0
  0
LINE
  5
178
100
AcDbEntity
  8
2
  6
CONTINUOUS
 62
     7
100
AcDbLine
 10
1861.129709
 20
568.687285
 30
0.0
 11
1861.129709
 21
565.687285
 31
0.0
  0
LINE
  5
179
100
AcDbEntity
  8
2
  6
CONTINUOUS
 62
     7
100
AcDbLine
 10
1865.129709
 20
568.687285
 30
0.0
 11
1865.129709
 21
565.687285
 31
0.0
  0
LINE
  5
17A
100
AcDbEntity
  8
2
  6
CONTINUOUS
 62
     7
100
AcDbLine
 10
1861.108909
 20
570.687285
 30
0.0
 11
1859.088109
 21
567.187285
 31
0.0
  0
LINE
  5
17B
100
AcDbEntity
  8
2
  6
CONTINUOUS
 62
     7
100
AcDbLine
 10
1859.088109
 20
567.187285
 30
0.0
 11
1861.108909
 21
563.687285
 31
0.0
  0
LINE
  5
17C
100
AcDbEntity
  8
2
  6
CONTINUOUS
 62
     7
100
AcDbLine
 10
1865.150509
 20
563.687285
 30
0.0
 11
1861.108909
 21
563.687285
 31
0.0
  0
LINE
  5
17D
100
AcDbEntity
  8
2
  6
CONTINUOUS
 62
     7
100
AcDbLine
 10
1867.171309
 20
567.187285
 30
0.0
 11
1865.150509
 21
563.687285
 31
0.0
  0
LINE
  5
17E
100
AcDbEntity
  8
2
  6
CONTINUOUS
 62
     7
100
AcDbLine
 10
1865.150509
 20
570.687285
 30
0.0
 11
1867.171309
 21
567.187285
 31
0.0
  0
LINE
  5
17F
100
AcDbEntity
  8
2
  6
CONTINUOUS
 62
     7
100
AcDbLine
 10
1861.108909
 20
570.687285
 30
0.0
 11
1865.150509
 21
570.687285
 31
0.0
  0
LINE
  5
180
100
AcDbEntity
  8
2
  6
CONTINUOUS
 62
     7
100
AcDbLine
 10
1856.129709
 20
556.187285
 30
0.0
 11
1870.129709
 21
556.187285
 31
0.0
  0
LINE
  5
181
100
AcDbEntity
  8
2
  6
CONTINUOUS
 62
     7
100
AcDbLine
 10
1870.129709
 20
577.687285
 30
0.0
 11
1870.129709
 21
556.187285
 31
0.0
  0
LINE
  5
182
100
AcDbEntity
  8
2
  6
CONTINUOUS
 62
     7
100
AcDbLine
 10
1856.129709
 20
567.187285
 30
0.0
 11
1856.129709
 21
565.187285
 31
0.0
  0
LINE
  5
183
100
AcDbEntity
  8
2
  6
CONTINUOUS
 62
     7
100
AcDbLine
 10
1856.129709
 20
556.187285
 30
0.0
 11
1855.129709
 21
555.187285
 31
0.0
  0
LINE
  5
184
100
AcDbEntity
  8
2
  6
CONTINUOUS
 62
     7
100
AcDbLine
 10
1870.129709
 20
556.187285
 30
0.0
 11
1871.129709
 21
555.187285
 31
0.0
  0
LINE
  5
185
100
AcDbEntity
  8
2
  6
CONTINUOUS
 62
     7
100
AcDbLine
 10
1852.629709
 20
565.187285
 30
0.0
 11
1856.129709
 21
565.187285
 31
0.0
  0
LINE
  5
186
100
AcDbEntity
  8
2
  6
HIDDEN
 62
     7
100
AcDbLine
 10
1865.129709
 20
574.187285
 30
0.0
 11
1870.129709
 21
574.187285
 31
0.0
  0
LINE
  5
187
100
AcDbEntity
  8
2
  6
CONTINUOUS
 62
     7
100
AcDbLine
 10
1870.129709
 20
565.187285
 30
0.0
 11
1873.629709
 21
565.187285
 31
0.0
  0
LINE
  5
188
100
AcDbEntity
  8
2
  6
CONTINUOUS
 62
     7
100
AcDbLine
 10
1870.129709
 20
569.187285
 30
0.0
 11
1873.629709
 21
569.187285
 31
0.0
  0
LINE
  5
189
100
AcDbEntity
  8
2
  6
CONTINUOUS
 62
     7
100
AcDbLine
 10
1852.629709
 20
560.187285
 30
0.0
 11
1856.129709
 21
560.187285
 31
0.0
  0
LINE
  5
18A
100
AcDbEntity
  8
2
  6
CONTINUOUS
 62
     7
100
AcDbLine
 10
1856.129709
 20
560.187285
 30
0.0
 11
1856.129709
 21
556.187285
 31
0.0
  0
LINE
  5
18B
100
AcDbEntity
  8
2
  6
HIDDEN
 62
     7
100
AcDbLine
 10
1856.129709
 20
565.187285
 30
0.0
 11
1856.129709
 21
560.187285
 31
0.0
  0
LINE
  5
18C
100
AcDbEntity
  8
2
  6
CONTINUOUS
 62
     7
100
AcDbLine
 10
1856.629709
 20
582.187285
 30
0.0
 11
1856.629709
 21
569.784885
 31
0.0
  0
LINE
  5
18D
100
AcDbEntity
  8
2
  6
CONTINUOUS
 62
     7
100
AcDbLine
 10
1854.629709
 20
545.187285
 30
0.0
 11
1855.129709
 21
548.022485
 31
0.0
  0
LINE
  5
18E
100
AcDbEntity
  8
2
  6
CONTINUOUS
 62
     7
100
AcDbLine
 10
1855.129709
 20
555.187285
 30
0.0
 11
1855.129709
 21
548.022485
 31
0.0
  0
LINE
  5
18F
100
AcDbEntity
  8
2
  6
CONTINUOUS
 62
     7
100
AcDbLine
 10
1871.129709
 20
555.187285
 30
0.0
 11
1871.129709
 21
548.022485
 31
0.0
  0
LINE
  5
190
100
AcDbEntity
  8
2
  6
CONTINUOUS
 62
     7
100
AcDbLine
 10
1871.629709
 20
545.187285
 30
0.0
 11
1871.129709
 21
548.022485
 31
0.0
  0
LINE
  5
191
100
AcDbEntity
  8
2
  6
CONTINUOUS
 62
     7
100
AcDbLine
 10
1865.129709
 20
577.687285
 30
0.0
 11
1870.129709
 21
577.687285
 31
0.0
  0
LINE
  5
192
100
AcDbEntity
  8
2
  6
CONTINUOUS
 62
     7
100
AcDbLine
 10
1972.129709
 20
610.187285
 30
0.0
 11
2154.129709
 21
610.187285
 31
0.0
  0
LINE
  5
193
100
AcDbEntity
  8
2
  6
CONTINUOUS
 62
     7
100
AcDbLine
 10
2254.129709
 20
610.187285
 30
0.0
 11
2254.129709
 21
602.187285
 31
0.0
  0
LINE
  5
194
100
AcDbEntity
  8
2
  6
CONTINUOUS
 62
     7
100
AcDbLine
 10
2254.129709
 20
602.187285
 30
0.0
 11
2263.129709
 21
602.187285
 31
0.0
  0
LINE
  5
195
100
AcDbEntity
  8
2
  6
CONTINUOUS
 62
     7
100
AcDbLine
 10
2254.782509
 20
595.187285
 30
0.0
 11
2254.599309
 21
602.187285
 31
0.0
  0
LINE
  5
196
100
AcDbEntity
  8
2
  6
CONTINUOUS
 62
     7
100
AcDbLine
 10
2255.637709
 20
595.187285
 30
0.0
 11
2255.495309
 21
600.636085
 31
0.0
  0
LINE
  5
197
100
AcDbEntity
  8
2
  6
CONTINUOUS
 62
     7
100
AcDbLine
 10
2254.599309
 20
602.187285
 30
0.0
 11
2255.495309
 21
600.636085
 31
0.0
  0
LINE
  5
198
100
AcDbEntity
  8
2
  6
CONTINUOUS
 62
     7
100
AcDbLine
 10
2254.640109
 20
600.636085
 30
0.0
 11
2263.129709
 21
600.636085
 31
0.0
  0
LINE
  5
199
100
AcDbEntity
  8
2
  6
CONTINUOUS
 62
     7
100
AcDbLine
 10
2271.619309
 20
600.636085
 30
0.0
 11
2263.129709
 21
600.636085
 31
0.0
  0
LINE
  5
19A
100
AcDbEntity
  8
2
  6
CONTINUOUS
 62
     7
100
AcDbLine
 10
2272.129709
 20
610.187285
 30
0.0
 11
2272.129709
 21
602.187285
 31
0.0
  0
LINE
  5
19B
100
AcDbEntity
  8
2
  6
CONTINUOUS
 62
     7
100
AcDbLine
 10
2272.129709
 20
602.187285
 30
0.0
 11
2263.129709
 21
602.187285
 31
0.0
  0
LINE
  5
19C
100
AcDbEntity
  8
2
  6
CONTINUOUS
 62
     7
100
AcDbLine
 10
2271.476909
 20
595.187285
 30
0.0
 11
2271.660109
 21
602.187285
 31
0.0
  0
LINE
  5
19D
100
AcDbEntity
  8
2
  6
CONTINUOUS
 62
     7
100
AcDbLine
 10
2270.621709
 20
595.187285
 30
0.0
 11
2270.764109
 21
600.636085
 31
0.0
  0
LINE
  5
19E
100
AcDbEntity
  8
2
  6
CONTINUOUS
 62
     7
100
AcDbLine
 10
2271.660109
 20
602.187285
 30
0.0
 11
2270.764909
 21
600.636085
 31
0.0
  0
LINE
  5
19F
100
AcDbEntity
  8
2
  6
CONTINUOUS
 62
     7
100
AcDbLine
 10
2272.129709
 20
607.187285
 30
0.0
 11
2275.129709
 21
610.187285
 31
0.0
  0
LINE
  5
1A0
100
AcDbEntity
  8
2
  6
CONTINUOUS
 62
     7
100
AcDbLine
 10
2254.129709
 20
607.187285
 30
0.0
 11
2251.129709
 21
610.187285
 31
0.0
  0
LINE
  5
1A1
100
AcDbEntity
  8
2
  6
CENTER
 62
     7
100
AcDbLine
 10
2263.129709
 20
646.536885
 30
0.0
 11
2263.129709
 21
595.536885
 31
0.0
  0
LINE
  5
1A2
100
AcDbEntity
  8
2
  6
CENTER
 62
     7
100
AcDbLine
 10
2246.504109
 20
567.187285
 30
0.0
 11
2276.848909
 21
567.187285
 31
0.0
  0
LINE
  5
1A3
100
AcDbEntity
  8
2
  6
CENTER
 62
     7
100
AcDbLine
 10
2263.129709
 20
599.339285
 30
0.0
 11
2263.129709
 21
498.978485
 31
0.0
  0
LINE
  5
1A4
100
AcDbEntity
  8
2
  6
CONTINUOUS
 62
     7
100
AcDbLine
 10
2252.629709
 20
595.187285
 30
0.0
 11
2273.629709
 21
595.187285
 31
0.0
  0
LINE
  5
1A5
100
AcDbEntity
  8
2
  6
CONTINUOUS
 62
     7
100
AcDbLine
 10
2252.629709
 20
545.187285
 30
0.0
 11
2254.629709
 21
545.187285
 31
0.0
  0
LINE
  5
1A6
100
AcDbEntity
  8
2
  6
CONTINUOUS
 62
     7
100
AcDbLine
 10
2252.629709
 20
595.187285
 30
0.0
 11
2252.629709
 21
545.187285
 31
0.0
  0
LINE
  5
1A7
100
AcDbEntity
  8
2
  6
CONTINUOUS
 62
     7
100
AcDbLine
 10
2273.629709
 20
595.187285
 30
0.0
 11
2273.629709
 21
545.187285
 31
0.0
  0
LINE
  5
1A8
100
AcDbEntity
  8
2
  6
CONTINUOUS
 62
     7
100
AcDbLine
 10
2271.629709
 20
545.187285
 30
0.0
 11
2273.629709
 21
545.187285
 31
0.0
  0
LINE
  5
1A9
100
AcDbEntity
  8
2
  6
CONTINUOUS
 62
     7
100
AcDbLine
 10
2252.629709
 20
569.187285
 30
0.0
 11
2256.421709
 21
569.187285
 31
0.0
  0
LINE
  5
1AA
100
AcDbEntity
  8
2
  6
CONTINUOUS
 62
     7
100
AcDbLine
 10
2256.629709
 20
582.187285
 30
0.0
 11
2269.629709
 21
582.187285
 31
0.0
  0
LINE
  5
1AB
100
AcDbEntity
  8
2
  6
CONTINUOUS
 62
     7
100
AcDbLine
 10
2262.129709
 20
594.687285
 30
0.0
 11
2262.129709
 21
583.187285
 31
0.0
  0
LINE
  5
1AC
100
AcDbEntity
  8
2
  6
CONTINUOUS
 62
     7
100
AcDbLine
 10
2264.129709
 20
594.687285
 30
0.0
 11
2264.129709
 21
583.187285
 31
0.0
  0
LINE
  5
1AD
100
AcDbEntity
  8
2
  6
CONTINUOUS
 62
     7
100
AcDbLine
 10
2269.629709
 20
582.187285
 30
0.0
 11
2269.629709
 21
577.687285
 31
0.0
  0
LINE
  5
1AE
100
AcDbEntity
  8
2
  6
CONTINUOUS
 62
     7
100
AcDbLine
 10
2262.129709
 20
583.187285
 30
0.0
 11
2264.129709
 21
583.187285
 31
0.0
  0
LINE
  5
1AF
100
AcDbEntity
  8
2
  6
CONTINUOUS
 62
     7
100
AcDbLine
 10
2256.629709
 20
582.187285
 30
0.0
 11
2262.129709
 21
583.187285
 31
0.0
  0
LINE
  5
1B0
100
AcDbEntity
  8
2
  6
CONTINUOUS
 62
     7
100
AcDbLine
 10
2264.129709
 20
583.187285
 30
0.0
 11
2269.629709
 21
582.187285
 31
0.0
  0
LINE
  5
1B1
100
AcDbEntity
  8
2
  6
CONTINUOUS
 62
     7
100
AcDbLine
 10
2253.129709
 20
594.687285
 30
0.0
 11
2253.129709
 21
569.187285
 31
0.0
  0
LINE
  5
1B2
100
AcDbEntity
  8
2
  6
CONTINUOUS
 62
     7
100
AcDbLine
 10
2253.129709
 20
560.187285
 30
0.0
 11
2253.129709
 21
545.687285
 31
0.0
  0
LINE
  5
1B3
100
AcDbEntity
  8
2
  6
CONTINUOUS
 62
     7
100
AcDbLine
 10
2273.129709
 20
565.187285
 30
0.0
 11
2273.129709
 21
545.687285
 31
0.0
  0
LINE
  5
1B4
100
AcDbEntity
  8
2
  6
CONTINUOUS
 62
     7
100
AcDbLine
 10
2273.129709
 20
594.687285
 30
0.0
 11
2273.129709
 21
569.187285
 31
0.0
  0
LINE
  5
1B5
100
AcDbEntity
  8
2
  6
CONTINUOUS
 62
     7
100
AcDbLine
 10
2262.129709
 20
594.687285
 30
0.0
 11
2264.129709
 21
594.687285
 31
0.0
  0
LINE
  5
1B6
100
AcDbEntity
  8
2
  6
CONTINUOUS
 62
     7
100
AcDbLine
 10
2252.629709
 20
545.687285
 30
0.0
 11
2253.129709
 21
545.687285
 31
0.0
  0
LINE
  5
1B7
100
AcDbEntity
  8
2
  6
CONTINUOUS
 62
     7
100
AcDbLine
 10
2253.129709
 20
545.687285
 30
0.0
 11
2254.629709
 21
545.187285
 31
0.0
  0
LINE
  5
1B8
100
AcDbEntity
  8
2
  6
CONTINUOUS
 62
     7
100
AcDbLine
 10
2252.629709
 20
594.687285
 30
0.0
 11
2253.129709
 21
594.687285
 31
0.0
  0
LINE
  5
1B9
100
AcDbEntity
  8
2
  6
CONTINUOUS
 62
     7
100
AcDbLine
 10
2273.129709
 20
594.687285
 30
0.0
 11
2273.629709
 21
594.687285
 31
0.0
  0
LINE
  5
1BA
100
AcDbEntity
  8
2
  6
CONTINUOUS
 62
     7
100
AcDbLine
 10
2273.129709
 20
545.687285
 30
0.0
 11
2273.629709
 21
545.687285
 31
0.0
  0
LINE
  5
1BB
100
AcDbEntity
  8
2
  6
CONTINUOUS
 62
     7
100
AcDbLine
 10
2271.629709
 20
545.187285
 30
0.0
 11
2273.129709
 21
545.687285
 31
0.0
  0
LINE
  5
1BC
100
AcDbEntity
  8
2
  6
CONTINUOUS
 62
     7
100
AcDbLine
 10
2265.129709
 20
577.687285
 30
0.0
 11
2265.129709
 21
574.187285
 31
0.0
  0
LINE
  5
1BD
100
AcDbEntity
  8
2
  6
CONTINUOUS
 62
     7
100
AcDbLine
 10
2263.129709
 20
574.187285
 30
0.0
 11
2265.129709
 21
574.187285
 31
0.0
  0
LINE
  5
1BE
100
AcDbEntity
  8
2
  6
CONTINUOUS
 62
     7
100
AcDbLine
 10
2263.129709
 20
505.187285
 30
0.0
 11
2269.129709
 21
508.651285
 31
0.0
  0
LINE
  5
1BF
100
AcDbEntity
  8
2
  6
CONTINUOUS
 62
     7
100
AcDbLine
 10
2269.129709
 20
508.651285
 30
0.0
 11
2271.629709
 21
545.187285
 31
0.0
  0
LINE
  5
1C0
100
AcDbEntity
  8
2
  6
CONTINUOUS
 62
     7
100
AcDbLine
 10
2257.129709
 20
508.651285
 30
0.0
 11
2254.629709
 21
545.187285
 31
0.0
  0
LINE
  5
1C1
100
AcDbEntity
  8
2
  6
CONTINUOUS
 62
     7
100
AcDbLine
 10
2263.129709
 20
505.187285
 30
0.0
 11
2257.129709
 21
508.651285
 31
0.0
  0
LINE
  5
1C2
100
AcDbEntity
  8
2
  6
CONTINUOUS
 62
     7
100
AcDbLine
 10
2256.992109
 20
550.187285
 30
0.0
 11
2263.129709
 21
550.187285
 31
0.0
  0
LINE
  5
1C3
100
AcDbEntity
  8
2
  6
CONTINUOUS
 62
     7
100
AcDbLine
 10
2256.992109
 20
550.187285
 30
0.0
 11
2256.085709
 21
549.280885
 31
0.0
  0
LINE
  5
1C4
100
AcDbEntity
  8
2
  6
CONTINUOUS
 62
     7
100
AcDbLine
 10
2269.267309
 20
550.187285
 30
0.0
 11
2263.129709
 21
550.187285
 31
0.0
  0
LINE
  5
1C5
100
AcDbEntity
  8
2
  6
CONTINUOUS
 62
     7
100
AcDbLine
 10
2269.267309
 20
550.187285
 30
0.0
 11
2270.173709
 21
549.280885
 31
0.0
  0
LINE
  5
1C6
100
AcDbEntity
  8
2
  6
CONTINUOUS
 62
     7
100
AcDbLine
 10
2261.129709
 20
568.687285
 30
0.0
 11
2261.129709
 21
565.687285
 31
0.0
  0
LINE
  5
1C7
100
AcDbEntity
  8
2
  6
CONTINUOUS
 62
     7
100
AcDbLine
 10
2265.129709
 20
568.687285
 30
0.0
 11
2265.129709
 21
565.687285
 31
0.0
  0
LINE
  5
1C8
100
AcDbEntity
  8
2
  6
CONTINUOUS
 62
     7
100
AcDbLine
 10
2261.108909
 20
570.687285
 30
0.0
 11
2259.088109
 21
567.187285
 31
0.0
  0
LINE
  5
1C9
100
AcDbEntity
  8
2
  6
CONTINUOUS
 62
     7
100
AcDbLine
 10
2259.088109
 20
567.187285
 30
0.0
 11
2261.108909
 21
563.687285
 31
0.0
  0
LINE
  5
1CA
100
AcDbEntity
  8
2
  6
CONTINUOUS
 62
     7
100
AcDbLine
 10
2265.150509
 20
563.687285
 30
0.0
 11
2261.108909
 21
563.687285
 31
0.0
  0
LINE
  5
1CB
100
AcDbEntity
  8
2
  6
CONTINUOUS
 62
     7
100
AcDbLine
 10
2267.171309
 20
567.187285
 30
0.0
 11
2265.150509
 21
563.687285
 31
0.0
  0
LINE
  5
1CC
100
AcDbEntity
  8
2
  6
CONTINUOUS
 62
     7
100
AcDbLine
 10
2265.150509
 20
570.687285
 30
0.0
 11
2267.171309
 21
567.187285
 31
0.0
  0
LINE
  5
1CD
100
AcDbEntity
  8
2
  6
CONTINUOUS
 62
     7
100
AcDbLine
 10
2261.108909
 20
570.687285
 30
0.0
 11
2265.150509
 21
570.687285
 31
0.0
  0
LINE
  5
1CE
100
AcDbEntity
  8
2
  6
CONTINUOUS
 62
     7
100
AcDbLine
 10
2256.129709
 20
556.187285
 30
0.0
 11
2270.129709
 21
556.187285
 31
0.0
  0
LINE
  5
1CF
100
AcDbEntity
  8
2
  6
CONTINUOUS
 62
     7
100
AcDbLine
 10
2270.129709
 20
577.687285
 30
0.0
 11
2270.129709
 21
556.187285
 31
0.0
  0
LINE
  5
1D0
100
AcDbEntity
  8
2
  6
CONTINUOUS
 62
     7
100
AcDbLine
 10
2256.129709
 20
567.187285
 30
0.0
 11
2256.129709
 21
565.187285
 31
0.0
  0
LINE
  5
1D1
100
AcDbEntity
  8
2
  6
CONTINUOUS
 62
     7
100
AcDbLine
 10
2256.129709
 20
556.187285
 30
0.0
 11
2255.129709
 21
555.187285
 31
0.0
  0
LINE
  5
1D2
100
AcDbEntity
  8
2
  6
CONTINUOUS
 62
     7
100
AcDbLine
 10
2270.129709
 20
556.187285
 30
0.0
 11
2271.129709
 21
555.187285
 31
0.0
  0
LINE
  5
1D3
100
AcDbEntity
  8
2
  6
CONTINUOUS
 62
     7
100
AcDbLine
 10
2252.629709
 20
565.187285
 30
0.0
 11
2256.129709
 21
565.187285
 31
0.0
  0
LINE
  5
1D4
100
AcDbEntity
  8
2
  6
HIDDEN
 62
     7
100
AcDbLine
 10
2265.129709
 20
574.187285
 30
0.0
 11
2270.129709
 21
574.187285
 31
0.0
  0
LINE
  5
1D5
100
AcDbEntity
  8
2
  6
CONTINUOUS
 62
     7
100
AcDbLine
 10
2270.129709
 20
565.187285
 30
0.0
 11
2273.629709
 21
565.187285
 31
0.0
  0
LINE
  5
1D6
100
AcDbEntity
  8
2
  6
CONTINUOUS
 62
     7
100
AcDbLine
 10
2270.129709
 20
569.187285
 30
0.0
 11
2273.629709
 21
569.187285
 31
0.0
  0
LINE
  5
1D7
100
AcDbEntity
  8
2
  6
CONTINUOUS
 62
     7
100
AcDbLine
 10
2252.629709
 20
560.187285
 30
0.0
 11
2256.129709
 21
560.187285
 31
0.0
  0
LINE
  5
1D8
100
AcDbEntity
  8
2
  6
CONTINUOUS
 62
     7
100
AcDbLine
 10
2256.129709
 20
560.187285
 30
0.0
 11
2256.129709
 21
556.187285
 31
0.0
  0
LINE
  5
1D9
100
AcDbEntity
  8
2
  6
HIDDEN
 62
     7
100
AcDbLine
 10
2256.129709
 20
565.187285
 30
0.0
 11
2256.129709
 21
560.187285
 31
0.0
  0
LINE
  5
1DA
100
AcDbEntity
  8
2
  6
CONTINUOUS
 62
     7
100
AcDbLine
 10
2256.629709
 20
582.187285
 30
0.0
 11
2256.629709
 21
569.784885
 31
0.0
  0
LINE
  5
1DB
100
AcDbEntity
  8
2
  6
CONTINUOUS
 62
     7
100
AcDbLine
 10
2254.629709
 20
545.187285
 30
0.0
 11
2255.129709
 21
548.022485
 31
0.0
  0
LINE
  5
1DC
100
AcDbEntity
  8
2
  6
CONTINUOUS
 62
     7
100
AcDbLine
 10
2255.129709
 20
555.187285
 30
0.0
 11
2255.129709
 21
548.022485
 31
0.0
  0
LINE
  5
1DD
100
AcDbEntity
  8
2
  6
CONTINUOUS
 62
     7
100
AcDbLine
 10
2271.129709
 20
555.187285
 30
0.0
 11
2271.129709
 21
548.022485
 31
0.0
  0
LINE
  5
1DE
100
AcDbEntity
  8
2
  6
CONTINUOUS
 62
     7
100
AcDbLine
 10
2271.629709
 20
545.187285
 30
0.0
 11
2271.129709
 21
548.022485
 31
0.0
  0
LINE
  5
1DF
100
AcDbEntity
  8
2
  6
CONTINUOUS
 62
     7
100
AcDbLine
 10
2265.129709
 20
577.687285
 30
0.0
 11
2270.129709
 21
577.687285
 31
0.0
  0
LINE
  5
1E0
100
AcDbEntity
  8
2
  6
CONTINUOUS
 62
     7
100
AcDbLine
 10
1272.129709
 20
631.887285
 30
0.0
 11
1267.129709
 21
631.887285
 31
0.0
  0
LINE
  5
1E1
100
AcDbEntity
  8
2
  6
CENTER
 62
     7
100
AcDbLine
 10
1263.129709
 20
692.876885
 30
0.0
 11
1263.129709
 21
618.187285
 31
0.0
  0
LINE
  5
1E2
100
AcDbEntity
  8
2
  6
CONTINUOUS
 62
     7
100
AcDbLine
 10
1254.129709
 20
631.887285
 30
0.0
 11
1259.129709
 21
631.887285
 31
0.0
  0
LINE
  5
1E3
100
AcDbEntity
  8
2
  6
CONTINUOUS
 62
     7
100
AcDbLine
 10
2077.490509
 20
1013.002485
 30
0.0
 11
2077.490509
 21
918.002485
 31
0.0
  0
LINE
  5
1E4
100
AcDbEntity
  8
2
  6
CENTER
 62
     7
100
AcDbLine
 10
2102.307309
 20
965.502485
 30
0.0
 11
1877.490509
 21
965.502485
 31
0.0
  0
LINE
  5
1E5
100
AcDbEntity
  8
2
  6
CONTINUOUS
 62
     7
100
AcDbLine
 10
2077.490509
 20
940.002485
 30
0.0
 11
2076.490509
 21
940.002485
 31
0.0
  0
LINE
  5
1E6
100
AcDbEntity
  8
2
  6
CONTINUOUS
 62
     7
100
AcDbLine
 10
2077.490509
 20
991.002485
 30
0.0
 11
2076.490509
 21
991.002485
 31
0.0
  0
LINE
  5
1E7
100
AcDbEntity
  8
2
  6
CONTINUOUS
 62
     7
100
AcDbLine
 10
2074.490509
 20
1013.002485
 30
0.0
 11
2065.490509
 21
1013.002485
 31
0.0
  0
LINE
  5
1E8
100
AcDbEntity
  8
2
  6
CONTINUOUS
 62
     7
100
AcDbLine
 10
2074.490509
 20
918.002485
 30
0.0
 11
2065.490509
 21
918.002485
 31
0.0
  0
LINE
  5
1E9
100
AcDbEntity
  8
2
  6
CONTINUOUS
 62
     7
100
AcDbLine
 10
2059.490509
 20
983.352885
 30
0.0
 11
2057.490509
 21
983.352885
 31
0.0
  0
LINE
  5
1EA
100
AcDbEntity
  8
2
  6
CONTINUOUS
 62
     7
100
AcDbLine
 10
2057.490509
 20
981.352885
 30
0.0
 11
2052.490509
 21
976.352885
 31
0.0
  0
LINE
  5
1EB
100
AcDbEntity
  8
2
  6
CONTINUOUS
 62
     7
100
AcDbLine
 10
2063.490509
 20
920.002485
 30
0.0
 11
2063.490509
 21
965.502485
 31
0.0
  0
LINE
  5
1EC
100
AcDbEntity
  8
2
  6
CONTINUOUS
 62
     7
100
AcDbLine
 10
2059.490509
 20
947.652885
 30
0.0
 11
2057.490509
 21
947.652885
 31
0.0
  0
LINE
  5
1ED
100
AcDbEntity
  8
2
  6
CONTINUOUS
 62
     7
100
AcDbLine
 10
2057.490509
 20
947.652885
 30
0.0
 11
2057.490509
 21
965.502485
 31
0.0
  0
LINE
  5
1EE
100
AcDbEntity
  8
2
  6
CONTINUOUS
 62
     7
100
AcDbLine
 10
2057.490509
 20
949.652885
 30
0.0
 11
2052.490509
 21
954.652885
 31
0.0
  0
LINE
  5
1EF
100
AcDbEntity
  8
2
  6
CONTINUOUS
 62
     7
100
AcDbLine
 10
2052.490509
 20
965.502485
 30
0.0
 11
2052.490509
 21
954.652885
 31
0.0
  0
LINE
  5
1F0
100
AcDbEntity
  8
2
  6
CONTINUOUS
 62
     7
100
AcDbLine
 10
2076.490509
 20
965.502485
 30
0.0
 11
2076.490509
 21
920.002485
 31
0.0
  0
LINE
  5
1F1
100
AcDbEntity
  8
2
  6
CENTER
 62
     7
100
AcDbLine
 10
1677.490509
 20
1016.059285
 30
0.0
 11
1677.490509
 21
961.060085
 31
0.0
  0
LINE
  5
1F2
100
AcDbEntity
  8
2
  6
CONTINUOUS
 62
     7
100
AcDbLine
 10
2052.490509
 20
954.652885
 30
0.0
 11
1886.490509
 21
954.652885
 31
0.0
  0
LINE
  5
1F3
100
AcDbEntity
  8
2
  6
CONTINUOUS
 62
     7
100
AcDbLine
 10
77.490509
 20
991.002485
 30
0.0
 11
77.490509
 21
940.002485
 31
0.0
  0
LINE
  5
1F4
100
AcDbEntity
  8
2
  6
CENTER
 62
     7
100
AcDbLine
 10
77.033709
 20
965.502485
 30
0.0
 11
1877.490509
 21
965.502485
 31
0.0
  0
LINE
  5
1F5
100
AcDbEntity
  8
2
  6
CONTINUOUS
 62
     7
100
AcDbLine
 10
77.490509
 20
940.002485
 30
0.0
 11
78.490509
 21
940.002485
 31
0.0
  0
LINE
  5
1F6
100
AcDbEntity
  8
2
  6
CONTINUOUS
 62
     7
100
AcDbLine
 10
77.490509
 20
991.002485
 30
0.0
 11
78.490509
 21
991.002485
 31
0.0
  0
LINE
  5
1F7
100
AcDbEntity
  8
2
  6
CONTINUOUS
 62
     7
100
AcDbLine
 10
80.490509
 20
1013.002485
 30
0.0
 11
89.490509
 21
1013.002485
 31
0.0
  0
LINE
  5
1F8
100
AcDbEntity
  8
2
  6
CONTINUOUS
 62
     7
100
AcDbLine
 10
80.490509
 20
918.002485
 30
0.0
 11
89.490509
 21
918.002485
 31
0.0
  0
LINE
  5
1F9
100
AcDbEntity
  8
2
  6
CONTINUOUS
 62
     7
100
AcDbLine
 10
95.490509
 20
983.352885
 30
0.0
 11
97.490509
 21
983.352885
 31
0.0
  0
LINE
  5
1FA
100
AcDbEntity
  8
2
  6
CONTINUOUS
 62
     7
100
AcDbLine
 10
97.489709
 20
981.352885
 30
0.0
 11
102.490509
 21
976.352885
 31
0.0
  0
LINE
  5
1FB
100
AcDbEntity
  8
2
  6
CONTINUOUS
 62
     7
100
AcDbLine
 10
91.489709
 20
920.002485
 30
0.0
 11
91.489709
 21
965.502485
 31
0.0
  0
LINE
  5
1FC
100
AcDbEntity
  8
2
  6
CONTINUOUS
 62
     7
100
AcDbLine
 10
95.490509
 20
947.652885
 30
0.0
 11
97.490509
 21
947.652885
 31
0.0
  0
LINE
  5
1FD
100
AcDbEntity
  8
2
  6
CONTINUOUS
 62
     7
100
AcDbLine
 10
97.490509
 20
947.652885
 30
0.0
 11
97.490509
 21
965.502485
 31
0.0
  0
LINE
  5
1FE
100
AcDbEntity
  8
2
  6
CONTINUOUS
 62
     7
100
AcDbLine
 10
97.489709
 20
949.652885
 30
0.0
 11
102.490509
 21
954.652885
 31
0.0
  0
LINE
  5
1FF
100
AcDbEntity
  8
2
  6
CONTINUOUS
 62
     7
100
AcDbLine
 10
102.490509
 20
965.502485
 30
0.0
 11
102.490509
 21
954.652885
 31
0.0
  0
LINE
  5
200
100
AcDbEntity
  8
2
  6
CONTINUOUS
 62
     7
100
AcDbLine
 10
78.490509
 20
965.502485
 30
0.0
 11
78.490509
 21
920.002485
 31
0.0
  0
LINE
  5
201
100
AcDbEntity
  8
2
  6
CONTINUOUS
 62
     7
100
AcDbLine
 10
168.490509
 20
954.652885
 30
0.0
 11
102.490509
 21
954.652885
 31
0.0
  0
LINE
  5
202
100
AcDbEntity
  8
2
  6
CONTINUOUS
 62
     7
100
AcDbLine
 10
286.490509
 20
954.652885
 30
0.0
 11
286.490509
 21
946.652885
 31
0.0
  0
LINE
  5
203
100
AcDbEntity
  8
2
  6
CONTINUOUS
 62
     7
100
AcDbLine
 10
286.490509
 20
946.652885
 30
0.0
 11
277.490509
 21
946.652885
 31
0.0
  0
LINE
  5
204
100
AcDbEntity
  8
2
  6
CONTINUOUS
 62
     7
100
AcDbLine
 10
285.837709
 20
939.652885
 30
0.0
 11
286.020909
 21
946.652885
 31
0.0
  0
LINE
  5
205
100
AcDbEntity
  8
2
  6
CONTINUOUS
 62
     7
100
AcDbLine
 10
284.982509
 20
939.652885
 30
0.0
 11
285.124909
 21
945.101685
 31
0.0
  0
LINE
  5
206
100
AcDbEntity
  8
2
  6
CONTINUOUS
 62
     7
100
AcDbLine
 10
286.020909
 20
946.652885
 30
0.0
 11
285.124909
 21
945.101685
 31
0.0
  0
LINE
  5
207
100
AcDbEntity
  8
2
  6
CONTINUOUS
 62
     7
100
AcDbLine
 10
285.980109
 20
945.101685
 30
0.0
 11
277.490509
 21
945.101685
 31
0.0
  0
LINE
  5
208
100
AcDbEntity
  8
2
  6
CONTINUOUS
 62
     7
100
AcDbLine
 10
269.000909
 20
945.101685
 30
0.0
 11
277.490509
 21
945.101685
 31
0.0
  0
LINE
  5
209
100
AcDbEntity
  8
2
  6
CONTINUOUS
 62
     7
100
AcDbLine
 10
268.490509
 20
954.652885
 30
0.0
 11
268.490509
 21
946.652885
 31
0.0
  0
LINE
  5
20A
100
AcDbEntity
  8
2
  6
CONTINUOUS
 62
     7
100
AcDbLine
 10
268.490509
 20
946.652885
 30
0.0
 11
277.490509
 21
946.652885
 31
0.0
  0
LINE
  5
20B
100
AcDbEntity
  8
2
  6
CONTINUOUS
 62
     7
100
AcDbLine
 10
269.143309
 20
939.652885
 30
0.0
 11
268.960109
 21
946.652885
 31
0.0
  0
LINE
  5
20C
100
AcDbEntity
  8
2
  6
CONTINUOUS
 62
     7
100
AcDbLine
 10
269.998509
 20
939.652885
 30
0.0
 11
269.855309
 21
945.101685
 31
0.0
  0
LINE
  5
20D
100
AcDbEntity
  8
2
  6
CONTINUOUS
 62
     7
100
AcDbLine
 10
268.960109
 20
946.652885
 30
0.0
 11
269.855309
 21
945.101685
 31
0.0
  0
LINE
  5
20E
100
AcDbEntity
  8
2
  6
CONTINUOUS
 62
     7
100
AcDbLine
 10
268.490509
 20
951.652885
 30
0.0
 11
265.490509
 21
954.652885
 31
0.0
  0
LINE
  5
20F
100
AcDbEntity
  8
2
  6
CONTINUOUS
 62
     7
100
AcDbLine
 10
286.490509
 20
951.652885
 30
0.0
 11
289.490509
 21
954.652885
 31
0.0
  0
LINE
  5
210
100
AcDbEntity
  8
2
  6
CENTER
 62
     7
100
AcDbLine
 10
277.490509
 20
991.002485
 30
0.0
 11
277.490509
 21
940.002485
 31
0.0
  0
LINE
  5
211
100
AcDbEntity
  8
2
  6
CENTER
 62
     7
100
AcDbLine
 10
294.116109
 20
911.652885
 30
0.0
 11
263.771309
 21
911.652885
 31
0.0
  0
LINE
  5
212
100
AcDbEntity
  8
2
  6
CENTER
 62
     7
100
AcDbLine
 10
277.490509
 20
943.804885
 30
0.0
 11
277.490509
 21
843.444085
 31
0.0
  0
LINE
  5
213
100
AcDbEntity
  8
2
  6
CONTINUOUS
 62
     7
100
AcDbLine
 10
287.989709
 20
939.652885
 30
0.0
 11
266.989709
 21
939.652885
 31
0.0
  0
LINE
  5
214
100
AcDbEntity
  8
2
  6
CONTINUOUS
 62
     7
100
AcDbLine
 10
287.989709
 20
889.652885
 30
0.0
 11
285.990509
 21
889.652885
 31
0.0
  0
LINE
  5
215
100
AcDbEntity
  8
2
  6
CONTINUOUS
 62
     7
100
AcDbLine
 10
287.989709
 20
939.652885
 30
0.0
 11
287.989709
 21
889.652885
 31
0.0
  0
LINE
  5
216
100
AcDbEntity
  8
2
  6
CONTINUOUS
 62
     7
100
AcDbLine
 10
266.989709
 20
939.652885
 30
0.0
 11
266.989709
 21
889.652885
 31
0.0
  0
LINE
  5
217
100
AcDbEntity
  8
2
  6
CONTINUOUS
 62
     7
100
AcDbLine
 10
268.990509
 20
889.652885
 30
0.0
 11
266.989709
 21
889.652885
 31
0.0
  0
LINE
  5
218
100
AcDbEntity
  8
2
  6
CONTINUOUS
 62
     7
100
AcDbLine
 10
287.989709
 20
913.652885
 30
0.0
 11
284.490509
 21
913.652885
 31
0.0
  0
LINE
  5
219
100
AcDbEntity
  8
2
  6
CONTINUOUS
 62
     7
100
AcDbLine
 10
283.990509
 20
926.652885
 30
0.0
 11
270.990509
 21
926.652885
 31
0.0
  0
LINE
  5
21A
100
AcDbEntity
  8
2
  6
CONTINUOUS
 62
     7
100
AcDbLine
 10
278.490509
 20
939.152885
 30
0.0
 11
278.490509
 21
927.652885
 31
0.0
  0
LINE
  5
21B
100
AcDbEntity
  8
2
  6
CONTINUOUS
 62
     7
100
AcDbLine
 10
276.490509
 20
939.152885
 30
0.0
 11
276.490509
 21
927.652885
 31
0.0
  0
LINE
  5
21C
100
AcDbEntity
  8
2
  6
CONTINUOUS
 62
     7
100
AcDbLine
 10
270.990509
 20
926.652885
 30
0.0
 11
270.990509
 21
914.251285
 31
0.0
  0
LINE
  5
21D
100
AcDbEntity
  8
2
  6
CONTINUOUS
 62
     7
100
AcDbLine
 10
278.490509
 20
927.652885
 30
0.0
 11
276.490509
 21
927.652885
 31
0.0
  0
LINE
  5
21E
100
AcDbEntity
  8
2
  6
CONTINUOUS
 62
     7
100
AcDbLine
 10
283.990509
 20
926.652885
 30
0.0
 11
278.490509
 21
927.652885
 31
0.0
  0
LINE
  5
21F
100
AcDbEntity
  8
2
  6
CONTINUOUS
 62
     7
100
AcDbLine
 10
276.489709
 20
927.652885
 30
0.0
 11
270.990509
 21
926.652885
 31
0.0
  0
LINE
  5
220
100
AcDbEntity
  8
2
  6
CONTINUOUS
 62
     7
100
AcDbLine
 10
287.490509
 20
939.152885
 30
0.0
 11
287.490509
 21
913.652885
 31
0.0
  0
LINE
  5
221
100
AcDbEntity
  8
2
  6
CONTINUOUS
 62
     7
100
AcDbLine
 10
287.490509
 20
904.652885
 30
0.0
 11
287.490509
 21
890.152885
 31
0.0
  0
LINE
  5
222
100
AcDbEntity
  8
2
  6
CONTINUOUS
 62
     7
100
AcDbLine
 10
267.490509
 20
909.652885
 30
0.0
 11
267.490509
 21
890.152885
 31
0.0
  0
LINE
  5
223
100
AcDbEntity
  8
2
  6
CONTINUOUS
 62
     7
100
AcDbLine
 10
267.490509
 20
939.152885
 30
0.0
 11
267.490509
 21
913.652885
 31
0.0
  0
LINE
  5
224
100
AcDbEntity
  8
2
  6
CONTINUOUS
 62
     7
100
AcDbLine
 10
278.490509
 20
939.152885
 30
0.0
 11
276.490509
 21
939.152885
 31
0.0
  0
LINE
  5
225
100
AcDbEntity
  8
2
  6
CONTINUOUS
 62
     7
100
AcDbLine
 10
287.989709
 20
890.152885
 30
0.0
 11
287.490509
 21
890.152885
 31
0.0
  0
LINE
  5
226
100
AcDbEntity
  8
2
  6
CONTINUOUS
 62
     7
100
AcDbLine
 10
287.490509
 20
890.152885
 30
0.0
 11
285.990509
 21
889.652885
 31
0.0
  0
LINE
  5
227
100
AcDbEntity
  8
2
  6
CONTINUOUS
 62
     7
100
AcDbLine
 10
287.989709
 20
939.152885
 30
0.0
 11
287.490509
 21
939.152885
 31
0.0
  0
LINE
  5
228
100
AcDbEntity
  8
2
  6
CONTINUOUS
 62
     7
100
AcDbLine
 10
267.490509
 20
939.152885
 30
0.0
 11
266.989709
 21
939.152885
 31
0.0
  0
LINE
  5
229
100
AcDbEntity
  8
2
  6
CONTINUOUS
 62
     7
100
AcDbLine
 10
267.490509
 20
890.152885
 30
0.0
 11
266.989709
 21
890.152885
 31
0.0
  0
LINE
  5
22A
100
AcDbEntity
  8
2
  6
CONTINUOUS
 62
     7
100
AcDbLine
 10
268.990509
 20
889.652885
 30
0.0
 11
267.490509
 21
890.152885
 31
0.0
  0
LINE
  5
22B
100
AcDbEntity
  8
2
  6
CONTINUOUS
 62
     7
100
AcDbLine
 10
277.490509
 20
849.652885
 30
0.0
 11
271.490509
 21
853.116885
 31
0.0
  0
LINE
  5
22C
100
AcDbEntity
  8
2
  6
CONTINUOUS
 62
     7
100
AcDbLine
 10
271.490509
 20
853.116885
 30
0.0
 11
268.990509
 21
889.652885
 31
0.0
  0
LINE
  5
22D
100
AcDbEntity
  8
2
  6
CONTINUOUS
 62
     7
100
AcDbLine
 10
283.490509
 20
853.116885
 30
0.0
 11
285.990509
 21
889.652885
 31
0.0
  0
LINE
  5
22E
100
AcDbEntity
  8
2
  6
CONTINUOUS
 62
     7
100
AcDbLine
 10
277.490509
 20
849.652885
 30
0.0
 11
283.490509
 21
853.116885
 31
0.0
  0
LINE
  5
22F
100
AcDbEntity
  8
2
  6
CONTINUOUS
 62
     7
100
AcDbLine
 10
283.627309
 20
894.652885
 30
0.0
 11
277.490509
 21
894.652885
 31
0.0
  0
LINE
  5
230
100
AcDbEntity
  8
2
  6
CONTINUOUS
 62
     7
100
AcDbLine
 10
283.627309
 20
894.652885
 30
0.0
 11
284.534509
 21
893.746485
 31
0.0
  0
LINE
  5
231
100
AcDbEntity
  8
2
  6
CONTINUOUS
 62
     7
100
AcDbLine
 10
271.352909
 20
894.652885
 30
0.0
 11
277.490509
 21
894.652885
 31
0.0
  0
LINE
  5
232
100
AcDbEntity
  8
2
  6
CONTINUOUS
 62
     7
100
AcDbLine
 10
271.352909
 20
894.652885
 30
0.0
 11
270.446509
 21
893.746485
 31
0.0
  0
LINE
  5
233
100
AcDbEntity
  8
2
  6
CONTINUOUS
 62
     7
100
AcDbLine
 10
279.489709
 20
913.152885
 30
0.0
 11
279.489709
 21
910.152885
 31
0.0
  0
LINE
  5
234
100
AcDbEntity
  8
2
  6
CONTINUOUS
 62
     7
100
AcDbLine
 10
275.489709
 20
913.152885
 30
0.0
 11
275.489709
 21
910.152885
 31
0.0
  0
LINE
  5
235
100
AcDbEntity
  8
2
  6
CONTINUOUS
 62
     7
100
AcDbLine
 10
279.510509
 20
915.152885
 30
0.0
 11
281.531309
 21
911.652885
 31
0.0
  0
LINE
  5
236
100
AcDbEntity
  8
2
  6
CONTINUOUS
 62
     7
100
AcDbLine
 10
281.532109
 20
911.652885
 30
0.0
 11
279.511309
 21
908.152885
 31
0.0
  0
LINE
  5
237
100
AcDbEntity
  8
2
  6
CONTINUOUS
 62
     7
100
AcDbLine
 10
275.469709
 20
908.152885
 30
0.0
 11
279.511309
 21
908.152885
 31
0.0
  0
LINE
  5
238
100
AcDbEntity
  8
2
  6
CONTINUOUS
 62
     7
100
AcDbLine
 10
273.448909
 20
911.652885
 30
0.0
 11
275.469709
 21
908.152885
 31
0.0
  0
LINE
  5
239
100
AcDbEntity
  8
2
  6
CONTINUOUS
 62
     7
100
AcDbLine
 10
275.469709
 20
915.152885
 30
0.0
 11
273.448909
 21
911.652885
 31
0.0
  0
LINE
  5
23A
100
AcDbEntity
  8
2
  6
CONTINUOUS
 62
     7
100
AcDbLine
 10
279.511309
 20
915.152885
 30
0.0
 11
275.469709
 21
915.152885
 31
0.0
  0
LINE
  5
23B
100
AcDbEntity
  8
2
  6
CONTINUOUS
 62
     7
100
AcDbLine
 10
284.489709
 20
900.652885
 30
0.0
 11
270.490509
 21
900.652885
 31
0.0
  0
LINE
  5
23C
100
AcDbEntity
  8
2
  6
CONTINUOUS
 62
     7
100
AcDbLine
 10
284.489709
 20
900.652885
 30
0.0
 11
285.490509
 21
899.652885
 31
0.0
  0
LINE
  5
23D
100
AcDbEntity
  8
2
  6
CONTINUOUS
 62
     7
100
AcDbLine
 10
270.490509
 20
900.652885
 30
0.0
 11
269.490509
 21
899.652885
 31
0.0
  0
LINE
  5
23E
100
AcDbEntity
  8
2
  6
CONTINUOUS
 62
     7
100
AcDbLine
 10
287.989709
 20
909.652885
 30
0.0
 11
284.489709
 21
909.652885
 31
0.0
  0
LINE
  5
23F
100
AcDbEntity
  8
2
  6
CONTINUOUS
 62
     7
100
AcDbLine
 10
270.490509
 20
909.652885
 30
0.0
 11
266.989709
 21
909.652885
 31
0.0
  0
LINE
  5
240
100
AcDbEntity
  8
2
  6
CONTINUOUS
 62
     7
100
AcDbLine
 10
270.781709
 20
913.652885
 30
0.0
 11
266.989709
 21
913.652885
 31
0.0
  0
LINE
  5
241
100
AcDbEntity
  8
2
  6
CONTINUOUS
 62
     7
100
AcDbLine
 10
287.989709
 20
904.652885
 30
0.0
 11
284.489709
 21
904.652885
 31
0.0
  0
LINE
  5
242
100
AcDbEntity
  8
2
  6
CONTINUOUS
 62
     7
100
AcDbLine
 10
283.990509
 20
926.652885
 30
0.0
 11
283.990509
 21
922.152885
 31
0.0
  0
LINE
  5
243
100
AcDbEntity
  8
2
  6
CONTINUOUS
 62
     7
100
AcDbLine
 10
285.990509
 20
889.652885
 30
0.0
 11
285.490509
 21
892.488085
 31
0.0
  0
LINE
  5
244
100
AcDbEntity
  8
2
  6
CONTINUOUS
 62
     7
100
AcDbLine
 10
285.490509
 20
899.652885
 30
0.0
 11
285.490509
 21
892.488085
 31
0.0
  0
LINE
  5
245
100
AcDbEntity
  8
2
  6
CONTINUOUS
 62
     7
100
AcDbLine
 10
269.490509
 20
899.652885
 30
0.0
 11
269.490509
 21
892.488085
 31
0.0
  0
LINE
  5
246
100
AcDbEntity
  8
2
  6
CONTINUOUS
 62
     7
100
AcDbLine
 10
268.990509
 20
889.652885
 30
0.0
 11
269.490509
 21
892.488085
 31
0.0
  0
LINE
  5
247
100
AcDbEntity
  8
2
  6
CONTINUOUS
 62
     7
100
AcDbLine
 10
1886.490509
 20
954.652885
 30
0.0
 11
1886.490509
 21
946.652885
 31
0.0
  0
LINE
  5
248
100
AcDbEntity
  8
2
  6
CONTINUOUS
 62
     7
100
AcDbLine
 10
1886.490509
 20
946.652885
 30
0.0
 11
1877.490509
 21
946.652885
 31
0.0
  0
LINE
  5
249
100
AcDbEntity
  8
2
  6
CONTINUOUS
 62
     7
100
AcDbLine
 10
1885.837709
 20
939.652885
 30
0.0
 11
1886.020909
 21
946.652885
 31
0.0
  0
LINE
  5
24A
100
AcDbEntity
  8
2
  6
CONTINUOUS
 62
     7
100
AcDbLine
 10
1884.982509
 20
939.652885
 30
0.0
 11
1885.124909
 21
945.101685
 31
0.0
  0
LINE
  5
24B
100
AcDbEntity
  8
2
  6
CONTINUOUS
 62
     7
100
AcDbLine
 10
1886.020909
 20
946.652885
 30
0.0
 11
1885.124909
 21
945.101685
 31
0.0
  0
LINE
  5
24C
100
AcDbEntity
  8
2
  6
CONTINUOUS
 62
     7
100
AcDbLine
 10
1885.980109
 20
945.101685
 30
0.0
 11
1877.490509
 21
945.101685
 31
0.0
  0
LINE
  5
24D
100
AcDbEntity
  8
2
  6
CONTINUOUS
 62
     7
100
AcDbLine
 10
1869.000909
 20
945.101685
 30
0.0
 11
1877.490509
 21
945.101685
 31
0.0
  0
LINE
  5
24E
100
AcDbEntity
  8
2
  6
CONTINUOUS
 62
     7
100
AcDbLine
 10
1868.490509
 20
954.652885
 30
0.0
 11
1868.490509
 21
946.652885
 31
0.0
  0
LINE
  5
24F
100
AcDbEntity
  8
2
  6
CONTINUOUS
 62
     7
100
AcDbLine
 10
1868.490509
 20
946.652885
 30
0.0
 11
1877.490509
 21
946.652885
 31
0.0
  0
LINE
  5
250
100
AcDbEntity
  8
2
  6
CONTINUOUS
 62
     7
100
AcDbLine
 10
1869.143309
 20
939.652885
 30
0.0
 11
1868.960109
 21
946.652885
 31
0.0
  0
LINE
  5
251
100
AcDbEntity
  8
2
  6
CONTINUOUS
 62
     7
100
AcDbLine
 10
1869.998509
 20
939.652885
 30
0.0
 11
1869.855309
 21
945.101685
 31
0.0
  0
LINE
  5
252
100
AcDbEntity
  8
2
  6
CONTINUOUS
 62
     7
100
AcDbLine
 10
1868.960109
 20
946.652885
 30
0.0
 11
1869.855309
 21
945.101685
 31
0.0
  0
LINE
  5
253
100
AcDbEntity
  8
2
  6
CENTER
 62
     7
100
AcDbLine
 10
1877.490509
 20
991.002485
 30
0.0
 11
1877.490509
 21
940.002485
 31
0.0
  0
LINE
  5
254
100
AcDbEntity
  8
2
  6
CENTER
 62
     7
100
AcDbLine
 10
1894.116109
 20
911.652885
 30
0.0
 11
1863.771309
 21
911.652885
 31
0.0
  0
LINE
  5
255
100
AcDbEntity
  8
2
  6
CENTER
 62
     7
100
AcDbLine
 10
1877.490509
 20
943.804885
 30
0.0
 11
1877.490509
 21
843.444085
 31
0.0
  0
LINE
  5
256
100
AcDbEntity
  8
2
  6
CONTINUOUS
 62
     7
100
AcDbLine
 10
1887.990509
 20
939.652885
 30
0.0
 11
1866.990509
 21
939.652885
 31
0.0
  0
LINE
  5
257
100
AcDbEntity
  8
2
  6
CONTINUOUS
 62
     7
100
AcDbLine
 10
1887.990509
 20
889.652885
 30
0.0
 11
1885.990509
 21
889.652885
 31
0.0
  0
LINE
  5
258
100
AcDbEntity
  8
2
  6
CONTINUOUS
 62
     7
100
AcDbLine
 10
1887.990509
 20
939.652885
 30
0.0
 11
1887.990509
 21
889.652885
 31
0.0
  0
LINE
  5
259
100
AcDbEntity
  8
2
  6
CONTINUOUS
 62
     7
100
AcDbLine
 10
1866.990509
 20
939.652885
 30
0.0
 11
1866.990509
 21
889.652885
 31
0.0
  0
LINE
  5
25A
100
AcDbEntity
  8
2
  6
CONTINUOUS
 62
     7
100
AcDbLine
 10
1868.990509
 20
889.652885
 30
0.0
 11
1866.990509
 21
889.652885
 31
0.0
  0
LINE
  5
25B
100
AcDbEntity
  8
2
  6
CONTINUOUS
 62
     7
100
AcDbLine
 10
1887.990509
 20
913.652885
 30
0.0
 11
1884.490509
 21
913.652885
 31
0.0
  0
LINE
  5
25C
100
AcDbEntity
  8
2
  6
CONTINUOUS
 62
     7
100
AcDbLine
 10
1883.990509
 20
926.652885
 30
0.0
 11
1870.990509
 21
926.652885
 31
0.0
  0
LINE
  5
25D
100
AcDbEntity
  8
2
  6
CONTINUOUS
 62
     7
100
AcDbLine
 10
1878.490509
 20
939.152885
 30
0.0
 11
1878.490509
 21
927.652885
 31
0.0
  0
LINE
  5
25E
100
AcDbEntity
  8
2
  6
CONTINUOUS
 62
     7
100
AcDbLine
 10
1876.490509
 20
939.152885
 30
0.0
 11
1876.490509
 21
927.652885
 31
0.0
  0
LINE
  5
25F
100
AcDbEntity
  8
2
  6
CONTINUOUS
 62
     7
100
AcDbLine
 10
1870.990509
 20
926.652885
 30
0.0
 11
1870.990509
 21
914.250485
 31
0.0
  0
LINE
  5
260
100
AcDbEntity
  8
2
  6
CONTINUOUS
 62
     7
100
AcDbLine
 10
1878.490509
 20
927.652885
 30
0.0
 11
1876.490509
 21
927.652885
 31
0.0
  0
LINE
  5
261
100
AcDbEntity
  8
2
  6
CONTINUOUS
 62
     7
100
AcDbLine
 10
1883.990509
 20
926.652885
 30
0.0
 11
1878.490509
 21
927.652885
 31
0.0
  0
LINE
  5
262
100
AcDbEntity
  8
2
  6
CONTINUOUS
 62
     7
100
AcDbLine
 10
1876.490509
 20
927.652885
 30
0.0
 11
1870.990509
 21
926.652885
 31
0.0
  0
LINE
  5
263
100
AcDbEntity
  8
2
  6
CONTINUOUS
 62
     7
100
AcDbLine
 10
1887.490509
 20
939.152885
 30
0.0
 11
1887.490509
 21
913.652885
 31
0.0
  0
LINE
  5
264
100
AcDbEntity
  8
2
  6
CONTINUOUS
 62
     7
100
AcDbLine
 10
1887.490509
 20
904.652885
 30
0.0
 11
1887.490509
 21
890.152885
 31
0.0
  0
LINE
  5
265
100
AcDbEntity
  8
2
  6
CONTINUOUS
 62
     7
100
AcDbLine
 10
1867.490509
 20
909.652885
 30
0.0
 11
1867.490509
 21
890.152885
 31
0.0
  0
LINE
  5
266
100
AcDbEntity
  8
2
  6
CONTINUOUS
 62
     7
100
AcDbLine
 10
1867.490509
 20
939.152885
 30
0.0
 11
1867.490509
 21
913.652885
 31
0.0
  0
LINE
  5
267
100
AcDbEntity
  8
2
  6
CONTINUOUS
 62
     7
100
AcDbLine
 10
1878.490509
 20
939.152885
 30
0.0
 11
1876.490509
 21
939.152885
 31
0.0
  0
LINE
  5
268
100
AcDbEntity
  8
2
  6
CONTINUOUS
 62
     7
100
AcDbLine
 10
1887.990509
 20
890.152885
 30
0.0
 11
1887.490509
 21
890.152885
 31
0.0
  0
LINE
  5
269
100
AcDbEntity
  8
2
  6
CONTINUOUS
 62
     7
100
AcDbLine
 10
1887.490509
 20
890.152885
 30
0.0
 11
1885.990509
 21
889.652885
 31
0.0
  0
LINE
  5
26A
100
AcDbEntity
  8
2
  6
CONTINUOUS
 62
     7
100
AcDbLine
 10
1887.990509
 20
939.152885
 30
0.0
 11
1887.490509
 21
939.152885
 31
0.0
  0
LINE
  5
26B
100
AcDbEntity
  8
2
  6
CONTINUOUS
 62
     7
100
AcDbLine
 10
1867.490509
 20
939.152885
 30
0.0
 11
1866.990509
 21
939.152885
 31
0.0
  0
LINE
  5
26C
100
AcDbEntity
  8
2
  6
CONTINUOUS
 62
     7
100
AcDbLine
 10
1867.490509
 20
890.152885
 30
0.0
 11
1866.990509
 21
890.152885
 31
0.0
  0
LINE
  5
26D
100
AcDbEntity
  8
2
  6
CONTINUOUS
 62
     7
100
AcDbLine
 10
1868.990509
 20
889.652885
 30
0.0
 11
1867.490509
 21
890.152885
 31
0.0
  0
LINE
  5
26E
100
AcDbEntity
  8
2
  6
CONTINUOUS
 62
     7
100
AcDbLine
 10
1877.490509
 20
849.652885
 30
0.0
 11
1871.490509
 21
853.116885
 31
0.0
  0
LINE
  5
26F
100
AcDbEntity
  8
2
  6
CONTINUOUS
 62
     7
100
AcDbLine
 10
1871.490509
 20
853.116885
 30
0.0
 11
1868.990509
 21
889.652885
 31
0.0
  0
LINE
  5
270
100
AcDbEntity
  8
2
  6
CONTINUOUS
 62
     7
100
AcDbLine
 10
1883.490509
 20
853.116885
 30
0.0
 11
1885.990509
 21
889.652885
 31
0.0
  0
LINE
  5
271
100
AcDbEntity
  8
2
  6
CONTINUOUS
 62
     7
100
AcDbLine
 10
1877.490509
 20
849.652885
 30
0.0
 11
1883.490509
 21
853.116885
 31
0.0
  0
LINE
  5
272
100
AcDbEntity
  8
2
  6
CONTINUOUS
 62
     7
100
AcDbLine
 10
1883.627309
 20
894.652885
 30
0.0
 11
1877.490509
 21
894.652885
 31
0.0
  0
LINE
  5
273
100
AcDbEntity
  8
2
  6
CONTINUOUS
 62
     7
100
AcDbLine
 10
1883.627309
 20
894.652885
 30
0.0
 11
1884.534509
 21
893.746485
 31
0.0
  0
LINE
  5
274
100
AcDbEntity
  8
2
  6
CONTINUOUS
 62
     7
100
AcDbLine
 10
1871.352909
 20
894.652885
 30
0.0
 11
1877.490509
 21
894.652885
 31
0.0
  0
LINE
  5
275
100
AcDbEntity
  8
2
  6
CONTINUOUS
 62
     7
100
AcDbLine
 10
1871.352909
 20
894.652885
 30
0.0
 11
1870.446509
 21
893.746485
 31
0.0
  0
LINE
  5
276
100
AcDbEntity
  8
2
  6
CONTINUOUS
 62
     7
100
AcDbLine
 10
1879.490509
 20
913.152885
 30
0.0
 11
1879.490509
 21
910.152885
 31
0.0
  0
LINE
  5
277
100
AcDbEntity
  8
2
  6
CONTINUOUS
 62
     7
100
AcDbLine
 10
1875.490509
 20
913.152885
 30
0.0
 11
1875.490509
 21
910.152885
 31
0.0
  0
LINE
  5
278
100
AcDbEntity
  8
2
  6
CONTINUOUS
 62
     7
100
AcDbLine
 10
1879.511309
 20
915.152885
 30
0.0
 11
1881.531309
 21
911.652885
 31
0.0
  0
LINE
  5
279
100
AcDbEntity
  8
2
  6
CONTINUOUS
 62
     7
100
AcDbLine
 10
1881.531309
 20
911.652885
 30
0.0
 11
1879.510509
 21
908.152885
 31
0.0
  0
LINE
  5
27A
100
AcDbEntity
  8
2
  6
CONTINUOUS
 62
     7
100
AcDbLine
 10
1875.469709
 20
908.152885
 30
0.0
 11
1879.511309
 21
908.152885
 31
0.0
  0
LINE
  5
27B
100
AcDbEntity
  8
2
  6
CONTINUOUS
 62
     7
100
AcDbLine
 10
1873.448909
 20
911.652885
 30
0.0
 11
1875.469709
 21
908.152885
 31
0.0
  0
LINE
  5
27C
100
AcDbEntity
  8
2
  6
CONTINUOUS
 62
     7
100
AcDbLine
 10
1875.469709
 20
915.152885
 30
0.0
 11
1873.448909
 21
911.652885
 31
0.0
  0
LINE
  5
27D
100
AcDbEntity
  8
2
  6
CONTINUOUS
 62
     7
100
AcDbLine
 10
1879.511309
 20
915.152885
 30
0.0
 11
1875.469709
 21
915.152885
 31
0.0
  0
LINE
  5
27E
100
AcDbEntity
  8
2
  6
CONTINUOUS
 62
     7
100
AcDbLine
 10
1884.490509
 20
900.652885
 30
0.0
 11
1870.490509
 21
900.652885
 31
0.0
  0
LINE
  5
27F
100
AcDbEntity
  8
2
  6
CONTINUOUS
 62
     7
100
AcDbLine
 10
1884.490509
 20
900.652885
 30
0.0
 11
1885.490509
 21
899.652885
 31
0.0
  0
LINE
  5
280
100
AcDbEntity
  8
2
  6
CONTINUOUS
 62
     7
100
AcDbLine
 10
1870.490509
 20
900.652885
 30
0.0
 11
1869.490509
 21
899.652885
 31
0.0
  0
LINE
  5
281
100
AcDbEntity
  8
2
  6
CONTINUOUS
 62
     7
100
AcDbLine
 10
1887.990509
 20
909.652885
 30
0.0
 11
1884.490509
 21
909.652885
 31
0.0
  0
LINE
  5
282
100
AcDbEntity
  8
2
  6
CONTINUOUS
 62
     7
100
AcDbLine
 10
1870.490509
 20
909.652885
 30
0.0
 11
1866.990509
 21
909.652885
 31
0.0
  0
LINE
  5
283
100
AcDbEntity
  8
2
  6
CONTINUOUS
 62
     7
100
AcDbLine
 10
1870.781709
 20
913.652885
 30
0.0
 11
1866.990509
 21
913.652885
 31
0.0
  0
LINE
  5
284
100
AcDbEntity
  8
2
  6
CONTINUOUS
 62
     7
100
AcDbLine
 10
1887.990509
 20
904.652885
 30
0.0
 11
1884.490509
 21
904.652885
 31
0.0
  0
LINE
  5
285
100
AcDbEntity
  8
2
  6
CONTINUOUS
 62
     7
100
AcDbLine
 10
1883.990509
 20
926.652885
 30
0.0
 11
1883.990509
 21
922.152885
 31
0.0
  0
LINE
  5
286
100
AcDbEntity
  8
2
  6
CONTINUOUS
 62
     7
100
AcDbLine
 10
1885.990509
 20
889.652885
 30
0.0
 11
1885.490509
 21
892.488085
 31
0.0
  0
LINE
  5
287
100
AcDbEntity
  8
2
  6
CONTINUOUS
 62
     7
100
AcDbLine
 10
1885.490509
 20
899.652885
 30
0.0
 11
1885.490509
 21
892.488085
 31
0.0
  0
LINE
  5
288
100
AcDbEntity
  8
2
  6
CONTINUOUS
 62
     7
100
AcDbLine
 10
1869.490509
 20
899.652885
 30
0.0
 11
1869.490509
 21
892.488085
 31
0.0
  0
LINE
  5
289
100
AcDbEntity
  8
2
  6
CONTINUOUS
 62
     7
100
AcDbLine
 10
1868.990509
 20
889.652885
 30
0.0
 11
1869.490509
 21
892.488085
 31
0.0
  0
LINE
  5
28A
100
AcDbEntity
  8
2
  6
CONTINUOUS
 62
     7
100
AcDbLine
 10
1886.490509
 20
951.652885
 30
0.0
 11
1889.490509
 21
954.652885
 31
0.0
  0
LINE
  5
28B
100
AcDbEntity
  8
2
  6
CONTINUOUS
 62
     7
100
AcDbLine
 10
1868.490509
 20
951.652885
 30
0.0
 11
1865.490509
 21
954.652885
 31
0.0
  0
LINE
  5
28C
100
AcDbEntity
  8
2
  6
CONTINUOUS
 62
     7
100
AcDbLine
 10
1768.490509
 20
954.652885
 30
0.0
 11
1586.490509
 21
954.652885
 31
0.0
  0
LINE
  5
28D
100
AcDbEntity
  8
2
  6
CONTINUOUS
 62
     7
100
AcDbLine
 10
1486.490509
 20
954.652885
 30
0.0
 11
1486.490509
 21
946.652885
 31
0.0
  0
LINE
  5
28E
100
AcDbEntity
  8
2
  6
CONTINUOUS
 62
     7
100
AcDbLine
 10
1486.490509
 20
946.652885
 30
0.0
 11
1477.490509
 21
946.652885
 31
0.0
  0
LINE
  5
28F
100
AcDbEntity
  8
2
  6
CONTINUOUS
 62
     7
100
AcDbLine
 10
1485.837709
 20
939.652885
 30
0.0
 11
1486.020909
 21
946.652885
 31
0.0
  0
LINE
  5
290
100
AcDbEntity
  8
2
  6
CONTINUOUS
 62
     7
100
AcDbLine
 10
1484.982509
 20
939.652885
 30
0.0
 11
1485.124909
 21
945.101685
 31
0.0
  0
LINE
  5
291
100
AcDbEntity
  8
2
  6
CONTINUOUS
 62
     7
100
AcDbLine
 10
1486.020909
 20
946.652885
 30
0.0
 11
1485.124909
 21
945.101685
 31
0.0
  0
LINE
  5
292
100
AcDbEntity
  8
2
  6
CONTINUOUS
 62
     7
100
AcDbLine
 10
1485.980109
 20
945.101685
 30
0.0
 11
1477.490509
 21
945.101685
 31
0.0
  0
LINE
  5
293
100
AcDbEntity
  8
2
  6
CONTINUOUS
 62
     7
100
AcDbLine
 10
1469.000909
 20
945.101685
 30
0.0
 11
1477.490509
 21
945.101685
 31
0.0
  0
LINE
  5
294
100
AcDbEntity
  8
2
  6
CONTINUOUS
 62
     7
100
AcDbLine
 10
1468.490509
 20
954.652885
 30
0.0
 11
1468.490509
 21
946.652885
 31
0.0
  0
LINE
  5
295
100
AcDbEntity
  8
2
  6
CONTINUOUS
 62
     7
100
AcDbLine
 10
1468.490509
 20
946.652885
 30
0.0
 11
1477.490509
 21
946.652885
 31
0.0
  0
LINE
  5
296
100
AcDbEntity
  8
2
  6
CONTINUOUS
 62
     7
100
AcDbLine
 10
1469.143309
 20
939.652885
 30
0.0
 11
1468.960109
 21
946.652885
 31
0.0
  0
LINE
  5
297
100
AcDbEntity
  8
2
  6
CONTINUOUS
 62
     7
100
AcDbLine
 10
1469.998509
 20
939.652885
 30
0.0
 11
1469.855309
 21
945.101685
 31
0.0
  0
LINE
  5
298
100
AcDbEntity
  8
2
  6
CONTINUOUS
 62
     7
100
AcDbLine
 10
1468.960109
 20
946.652885
 30
0.0
 11
1469.855309
 21
945.101685
 31
0.0
  0
LINE
  5
299
100
AcDbEntity
  8
2
  6
CONTINUOUS
 62
     7
100
AcDbLine
 10
1468.490509
 20
951.652885
 30
0.0
 11
1465.490509
 21
954.652885
 31
0.0
  0
LINE
  5
29A
100
AcDbEntity
  8
2
  6
CONTINUOUS
 62
     7
100
AcDbLine
 10
1486.490509
 20
951.652885
 30
0.0
 11
1489.490509
 21
954.652885
 31
0.0
  0
LINE
  5
29B
100
AcDbEntity
  8
2
  6
CENTER
 62
     7
100
AcDbLine
 10
1477.490509
 20
991.002485
 30
0.0
 11
1477.490509
 21
940.002485
 31
0.0
  0
LINE
  5
29C
100
AcDbEntity
  8
2
  6
CENTER
 62
     7
100
AcDbLine
 10
1494.116109
 20
911.652885
 30
0.0
 11
1463.771309
 21
911.652885
 31
0.0
  0
LINE
  5
29D
100
AcDbEntity
  8
2
  6
CENTER
 62
     7
100
AcDbLine
 10
1477.490509
 20
943.804885
 30
0.0
 11
1477.490509
 21
843.444085
 31
0.0
  0
LINE
  5
29E
100
AcDbEntity
  8
2
  6
CONTINUOUS
 62
     7
100
AcDbLine
 10
1487.990509
 20
939.652885
 30
0.0
 11
1466.990509
 21
939.652885
 31
0.0
  0
LINE
  5
29F
100
AcDbEntity
  8
2
  6
CONTINUOUS
 62
     7
100
AcDbLine
 10
1487.990509
 20
889.652885
 30
0.0
 11
1485.990509
 21
889.652885
 31
0.0
  0
LINE
  5
2A0
100
AcDbEntity
  8
2
  6
CONTINUOUS
 62
     7
100
AcDbLine
 10
1487.990509
 20
939.652885
 30
0.0
 11
1487.990509
 21
889.652885
 31
0.0
  0
LINE
  5
2A1
100
AcDbEntity
  8
2
  6
CONTINUOUS
 62
     7
100
AcDbLine
 10
1466.990509
 20
939.652885
 30
0.0
 11
1466.990509
 21
889.652885
 31
0.0
  0
LINE
  5
2A2
100
AcDbEntity
  8
2
  6
CONTINUOUS
 62
     7
100
AcDbLine
 10
1468.990509
 20
889.652885
 30
0.0
 11
1466.990509
 21
889.652885
 31
0.0
  0
LINE
  5
2A3
100
AcDbEntity
  8
2
  6
CONTINUOUS
 62
     7
100
AcDbLine
 10
1487.990509
 20
913.652885
 30
0.0
 11
1484.490509
 21
913.652885
 31
0.0
  0
LINE
  5
2A4
100
AcDbEntity
  8
2
  6
CONTINUOUS
 62
     7
100
AcDbLine
 10
1483.990509
 20
926.652885
 30
0.0
 11
1470.990509
 21
926.652885
 31
0.0
  0
LINE
  5
2A5
100
AcDbEntity
  8
2
  6
CONTINUOUS
 62
     7
100
AcDbLine
 10
1478.490509
 20
939.152885
 30
0.0
 11
1478.490509
 21
927.652885
 31
0.0
  0
LINE
  5
2A6
100
AcDbEntity
  8
2
  6
CONTINUOUS
 62
     7
100
AcDbLine
 10
1476.490509
 20
939.152885
 30
0.0
 11
1476.490509
 21
927.652885
 31
0.0
  0
LINE
  5
2A7
100
AcDbEntity
  8
2
  6
CONTINUOUS
 62
     7
100
AcDbLine
 10
1470.990509
 20
926.652885
 30
0.0
 11
1470.990509
 21
914.251285
 31
0.0
  0
LINE
  5
2A8
100
AcDbEntity
  8
2
  6
CONTINUOUS
 62
     7
100
AcDbLine
 10
1478.490509
 20
927.652885
 30
0.0
 11
1476.490509
 21
927.652885
 31
0.0
  0
LINE
  5
2A9
100
AcDbEntity
  8
2
  6
CONTINUOUS
 62
     7
100
AcDbLine
 10
1483.990509
 20
926.652885
 30
0.0
 11
1478.490509
 21
927.652885
 31
0.0
  0
LINE
  5
2AA
100
AcDbEntity
  8
2
  6
CONTINUOUS
 62
     7
100
AcDbLine
 10
1476.490509
 20
927.652885
 30
0.0
 11
1470.990509
 21
926.652885
 31
0.0
  0
LINE
  5
2AB
100
AcDbEntity
  8
2
  6
CONTINUOUS
 62
     7
100
AcDbLine
 10
1487.490509
 20
939.152885
 30
0.0
 11
1487.490509
 21
913.652885
 31
0.0
  0
LINE
  5
2AC
100
AcDbEntity
  8
2
  6
CONTINUOUS
 62
     7
100
AcDbLine
 10
1487.490509
 20
904.652885
 30
0.0
 11
1487.490509
 21
890.152885
 31
0.0
  0
LINE
  5
2AD
100
AcDbEntity
  8
2
  6
CONTINUOUS
 62
     7
100
AcDbLine
 10
1467.490509
 20
909.652885
 30
0.0
 11
1467.490509
 21
890.152885
 31
0.0
  0
LINE
  5
2AE
100
AcDbEntity
  8
2
  6
CONTINUOUS
 62
     7
100
AcDbLine
 10
1467.490509
 20
939.152885
 30
0.0
 11
1467.490509
 21
913.652885
 31
0.0
  0
LINE
  5
2AF
100
AcDbEntity
  8
2
  6
CONTINUOUS
 62
     7
100
AcDbLine
 10
1478.490509
 20
939.152885
 30
0.0
 11
1476.490509
 21
939.152885
 31
0.0
  0
LINE
  5
2B0
100
AcDbEntity
  8
2
  6
CONTINUOUS
 62
     7
100
AcDbLine
 10
1487.990509
 20
890.152885
 30
0.0
 11
1487.490509
 21
890.152885
 31
0.0
  0
LINE
  5
2B1
100
AcDbEntity
  8
2
  6
CONTINUOUS
 62
     7
100
AcDbLine
 10
1487.490509
 20
890.152885
 30
0.0
 11
1485.990509
 21
889.652885
 31
0.0
  0
LINE
  5
2B2
100
AcDbEntity
  8
2
  6
CONTINUOUS
 62
     7
100
AcDbLine
 10
1487.990509
 20
939.152885
 30
0.0
 11
1487.490509
 21
939.152885
 31
0.0
  0
LINE
  5
2B3
100
AcDbEntity
  8
2
  6
CONTINUOUS
 62
     7
100
AcDbLine
 10
1467.490509
 20
939.152885
 30
0.0
 11
1466.990509
 21
939.152885
 31
0.0
  0
LINE
  5
2B4
100
AcDbEntity
  8
2
  6
CONTINUOUS
 62
     7
100
AcDbLine
 10
1467.490509
 20
890.152885
 30
0.0
 11
1466.990509
 21
890.152885
 31
0.0
  0
LINE
  5
2B5
100
AcDbEntity
  8
2
  6
CONTINUOUS
 62
     7
100
AcDbLine
 10
1468.990509
 20
889.652885
 30
0.0
 11
1467.490509
 21
890.152885
 31
0.0
  0
LINE
  5
2B6
100
AcDbEntity
  8
2
  6
CONTINUOUS
 62
     7
100
AcDbLine
 10
1477.490509
 20
849.652885
 30
0.0
 11
1471.490509
 21
853.116885
 31
0.0
  0
LINE
  5
2B7
100
AcDbEntity
  8
2
  6
CONTINUOUS
 62
     7
100
AcDbLine
 10
1471.490509
 20
853.116885
 30
0.0
 11
1468.990509
 21
889.652885
 31
0.0
  0
LINE
  5
2B8
100
AcDbEntity
  8
2
  6
CONTINUOUS
 62
     7
100
AcDbLine
 10
1483.490509
 20
853.116885
 30
0.0
 11
1485.990509
 21
889.652885
 31
0.0
  0
LINE
  5
2B9
100
AcDbEntity
  8
2
  6
CONTINUOUS
 62
     7
100
AcDbLine
 10
1477.490509
 20
849.652885
 30
0.0
 11
1483.490509
 21
853.116885
 31
0.0
  0
LINE
  5
2BA
100
AcDbEntity
  8
2
  6
CONTINUOUS
 62
     7
100
AcDbLine
 10
1483.627309
 20
894.652885
 30
0.0
 11
1477.490509
 21
894.652885
 31
0.0
  0
LINE
  5
2BB
100
AcDbEntity
  8
2
  6
CONTINUOUS
 62
     7
100
AcDbLine
 10
1483.627309
 20
894.652885
 30
0.0
 11
1484.534509
 21
893.746485
 31
0.0
  0
LINE
  5
2BC
100
AcDbEntity
  8
2
  6
CONTINUOUS
 62
     7
100
AcDbLine
 10
1471.352909
 20
894.652885
 30
0.0
 11
1477.490509
 21
894.652885
 31
0.0
  0
LINE
  5
2BD
100
AcDbEntity
  8
2
  6
CONTINUOUS
 62
     7
100
AcDbLine
 10
1471.352909
 20
894.652885
 30
0.0
 11
1470.446509
 21
893.746485
 31
0.0
  0
LINE
  5
2BE
100
AcDbEntity
  8
2
  6
CONTINUOUS
 62
     7
100
AcDbLine
 10
1479.490509
 20
913.152885
 30
0.0
 11
1479.490509
 21
910.152885
 31
0.0
  0
LINE
  5
2BF
100
AcDbEntity
  8
2
  6
CONTINUOUS
 62
     7
100
AcDbLine
 10
1475.490509
 20
913.152885
 30
0.0
 11
1475.490509
 21
910.152885
 31
0.0
  0
LINE
  5
2C0
100
AcDbEntity
  8
2
  6
CONTINUOUS
 62
     7
100
AcDbLine
 10
1479.511309
 20
915.152885
 30
0.0
 11
1481.532109
 21
911.652885
 31
0.0
  0
LINE
  5
2C1
100
AcDbEntity
  8
2
  6
CONTINUOUS
 62
     7
100
AcDbLine
 10
1481.531309
 20
911.652885
 30
0.0
 11
1479.511309
 21
908.152885
 31
0.0
  0
LINE
  5
2C2
100
AcDbEntity
  8
2
  6
CONTINUOUS
 62
     7
100
AcDbLine
 10
1475.469709
 20
908.152885
 30
0.0
 11
1479.511309
 21
908.152885
 31
0.0
  0
LINE
  5
2C3
100
AcDbEntity
  8
2
  6
CONTINUOUS
 62
     7
100
AcDbLine
 10
1473.448909
 20
911.652885
 30
0.0
 11
1475.469709
 21
908.152885
 31
0.0
  0
LINE
  5
2C4
100
AcDbEntity
  8
2
  6
CONTINUOUS
 62
     7
100
AcDbLine
 10
1475.469709
 20
915.152885
 30
0.0
 11
1473.448909
 21
911.652885
 31
0.0
  0
LINE
  5
2C5
100
AcDbEntity
  8
2
  6
CONTINUOUS
 62
     7
100
AcDbLine
 10
1479.511309
 20
915.152885
 30
0.0
 11
1475.469709
 21
915.152885
 31
0.0
  0
LINE
  5
2C6
100
AcDbEntity
  8
2
  6
CONTINUOUS
 62
     7
100
AcDbLine
 10
1484.490509
 20
900.652885
 30
0.0
 11
1470.490509
 21
900.652885
 31
0.0
  0
LINE
  5
2C7
100
AcDbEntity
  8
2
  6
CONTINUOUS
 62
     7
100
AcDbLine
 10
1484.490509
 20
900.652885
 30
0.0
 11
1485.490509
 21
899.652885
 31
0.0
  0
LINE
  5
2C8
100
AcDbEntity
  8
2
  6
CONTINUOUS
 62
     7
100
AcDbLine
 10
1470.490509
 20
900.652885
 30
0.0
 11
1469.490509
 21
899.652885
 31
0.0
  0
LINE
  5
2C9
100
AcDbEntity
  8
2
  6
CONTINUOUS
 62
     7
100
AcDbLine
 10
1487.990509
 20
909.652885
 30
0.0
 11
1484.490509
 21
909.652885
 31
0.0
  0
LINE
  5
2CA
100
AcDbEntity
  8
2
  6
CONTINUOUS
 62
     7
100
AcDbLine
 10
1470.490509
 20
909.652885
 30
0.0
 11
1466.990509
 21
909.652885
 31
0.0
  0
LINE
  5
2CB
100
AcDbEntity
  8
2
  6
CONTINUOUS
 62
     7
100
AcDbLine
 10
1470.781709
 20
913.652885
 30
0.0
 11
1466.990509
 21
913.652885
 31
0.0
  0
LINE
  5
2CC
100
AcDbEntity
  8
2
  6
CONTINUOUS
 62
     7
100
AcDbLine
 10
1487.990509
 20
904.652885
 30
0.0
 11
1484.490509
 21
904.652885
 31
0.0
  0
LINE
  5
2CD
100
AcDbEntity
  8
2
  6
CONTINUOUS
 62
     7
100
AcDbLine
 10
1483.990509
 20
926.652885
 30
0.0
 11
1483.990509
 21
922.152885
 31
0.0
  0
LINE
  5
2CE
100
AcDbEntity
  8
2
  6
CONTINUOUS
 62
     7
100
AcDbLine
 10
1485.990509
 20
889.652885
 30
0.0
 11
1485.490509
 21
892.488085
 31
0.0
  0
LINE
  5
2CF
100
AcDbEntity
  8
2
  6
CONTINUOUS
 62
     7
100
AcDbLine
 10
1485.490509
 20
899.652885
 30
0.0
 11
1485.490509
 21
892.488085
 31
0.0
  0
LINE
  5
2D0
100
AcDbEntity
  8
2
  6
CONTINUOUS
 62
     7
100
AcDbLine
 10
1469.490509
 20
899.652885
 30
0.0
 11
1469.490509
 21
892.488085
 31
0.0
  0
LINE
  5
2D1
100
AcDbEntity
  8
2
  6
CONTINUOUS
 62
     7
100
AcDbLine
 10
1468.990509
 20
889.652885
 30
0.0
 11
1469.490509
 21
892.488085
 31
0.0
  0
LINE
  5
2D2
100
AcDbEntity
  8
2
  6
CONTINUOUS
 62
     7
100
AcDbLine
 10
1368.490509
 20
954.652885
 30
0.0
 11
1186.490509
 21
954.652885
 31
0.0
  0
LINE
  5
2D3
100
AcDbEntity
  8
2
  6
CONTINUOUS
 62
     7
100
AcDbLine
 10
1086.490509
 20
954.652885
 30
0.0
 11
1086.490509
 21
946.652885
 31
0.0
  0
LINE
  5
2D4
100
AcDbEntity
  8
2
  6
CONTINUOUS
 62
     7
100
AcDbLine
 10
1086.490509
 20
946.652885
 30
0.0
 11
1077.490509
 21
946.652885
 31
0.0
  0
LINE
  5
2D5
100
AcDbEntity
  8
2
  6
CONTINUOUS
 62
     7
100
AcDbLine
 10
1085.836909
 20
939.652885
 30
0.0
 11
1086.020909
 21
946.652885
 31
0.0
  0
LINE
  5
2D6
100
AcDbEntity
  8
2
  6
CONTINUOUS
 62
     7
100
AcDbLine
 10
1084.982509
 20
939.652885
 30
0.0
 11
1085.124909
 21
945.101685
 31
0.0
  0
LINE
  5
2D7
100
AcDbEntity
  8
2
  6
CONTINUOUS
 62
     7
100
AcDbLine
 10
1086.020909
 20
946.652885
 30
0.0
 11
1085.124909
 21
945.101685
 31
0.0
  0
LINE
  5
2D8
100
AcDbEntity
  8
2
  6
CONTINUOUS
 62
     7
100
AcDbLine
 10
1085.980109
 20
945.101685
 30
0.0
 11
1077.490509
 21
945.101685
 31
0.0
  0
LINE
  5
2D9
100
AcDbEntity
  8
2
  6
CONTINUOUS
 62
     7
100
AcDbLine
 10
1069.000909
 20
945.101685
 30
0.0
 11
1077.490509
 21
945.101685
 31
0.0
  0
LINE
  5
2DA
100
AcDbEntity
  8
2
  6
CONTINUOUS
 62
     7
100
AcDbLine
 10
1068.490509
 20
954.652885
 30
0.0
 11
1068.490509
 21
946.652885
 31
0.0
  0
LINE
  5
2DB
100
AcDbEntity
  8
2
  6
CONTINUOUS
 62
     7
100
AcDbLine
 10
1068.490509
 20
946.652885
 30
0.0
 11
1077.490509
 21
946.652885
 31
0.0
  0
LINE
  5
2DC
100
AcDbEntity
  8
2
  6
CONTINUOUS
 62
     7
100
AcDbLine
 10
1069.143309
 20
939.652885
 30
0.0
 11
1068.960109
 21
946.652885
 31
0.0
  0
LINE
  5
2DD
100
AcDbEntity
  8
2
  6
CONTINUOUS
 62
     7
100
AcDbLine
 10
1069.998509
 20
939.652885
 30
0.0
 11
1069.855309
 21
945.101685
 31
0.0
  0
LINE
  5
2DE
100
AcDbEntity
  8
2
  6
CONTINUOUS
 62
     7
100
AcDbLine
 10
1068.960109
 20
946.652885
 30
0.0
 11
1069.855309
 21
945.101685
 31
0.0
  0
LINE
  5
2DF
100
AcDbEntity
  8
2
  6
CONTINUOUS
 62
     7
100
AcDbLine
 10
1068.490509
 20
951.652885
 30
0.0
 11
1065.490509
 21
954.652885
 31
0.0
  0
LINE
  5
2E0
100
AcDbEntity
  8
2
  6
CONTINUOUS
 62
     7
100
AcDbLine
 10
1086.490509
 20
951.652885
 30
0.0
 11
1089.490509
 21
954.652885
 31
0.0
  0
LINE
  5
2E1
100
AcDbEntity
  8
2
  6
CENTER
 62
     7
100
AcDbLine
 10
1077.490509
 20
991.002485
 30
0.0
 11
1077.490509
 21
940.002485
 31
0.0
  0
LINE
  5
2E2
100
AcDbEntity
  8
2
  6
CENTER
 62
     7
100
AcDbLine
 10
1094.116109
 20
911.652885
 30
0.0
 11
1063.771309
 21
911.652885
 31
0.0
  0
LINE
  5
2E3
100
AcDbEntity
  8
2
  6
CENTER
 62
     7
100
AcDbLine
 10
1077.490509
 20
943.804885
 30
0.0
 11
1077.490509
 21
843.444085
 31
0.0
  0
LINE
  5
2E4
100
AcDbEntity
  8
2
  6
CONTINUOUS
 62
     7
100
AcDbLine
 10
1087.990509
 20
939.652885
 30
0.0
 11
1066.990509
 21
939.652885
 31
0.0
  0
LINE
  5
2E5
100
AcDbEntity
  8
2
  6
CONTINUOUS
 62
     7
100
AcDbLine
 10
1087.990509
 20
889.652885
 30
0.0
 11
1085.990509
 21
889.652885
 31
0.0
  0
LINE
  5
2E6
100
AcDbEntity
  8
2
  6
CONTINUOUS
 62
     7
100
AcDbLine
 10
1087.990509
 20
939.652885
 30
0.0
 11
1087.990509
 21
889.652885
 31
0.0
  0
LINE
  5
2E7
100
AcDbEntity
  8
2
  6
CONTINUOUS
 62
     7
100
AcDbLine
 10
1066.990509
 20
939.652885
 30
0.0
 11
1066.990509
 21
889.652885
 31
0.0
  0
LINE
  5
2E8
100
AcDbEntity
  8
2
  6
CONTINUOUS
 62
     7
100
AcDbLine
 10
1068.990509
 20
889.652885
 30
0.0
 11
1066.990509
 21
889.652885
 31
0.0
  0
LINE
  5
2E9
100
AcDbEntity
  8
2
  6
CONTINUOUS
 62
     7
100
AcDbLine
 10
1087.990509
 20
913.652885
 30
0.0
 11
1084.490509
 21
913.652885
 31
0.0
  0
LINE
  5
2EA
100
AcDbEntity
  8
2
  6
CONTINUOUS
 62
     7
100
AcDbLine
 10
1083.990509
 20
926.652885
 30
0.0
 11
1070.990509
 21
926.652885
 31
0.0
  0
LINE
  5
2EB
100
AcDbEntity
  8
2
  6
CONTINUOUS
 62
     7
100
AcDbLine
 10
1078.490509
 20
939.152885
 30
0.0
 11
1078.490509
 21
927.652885
 31
0.0
  0
LINE
  5
2EC
100
AcDbEntity
  8
2
  6
CONTINUOUS
 62
     7
100
AcDbLine
 10
1076.490509
 20
939.152885
 30
0.0
 11
1076.490509
 21
927.652885
 31
0.0
  0
LINE
  5
2ED
100
AcDbEntity
  8
2
  6
CONTINUOUS
 62
     7
100
AcDbLine
 10
1070.990509
 20
926.652885
 30
0.0
 11
1070.990509
 21
914.250485
 31
0.0
  0
LINE
  5
2EE
100
AcDbEntity
  8
2
  6
CONTINUOUS
 62
     7
100
AcDbLine
 10
1078.490509
 20
927.652885
 30
0.0
 11
1076.490509
 21
927.652885
 31
0.0
  0
LINE
  5
2EF
100
AcDbEntity
  8
2
  6
CONTINUOUS
 62
     7
100
AcDbLine
 10
1083.990509
 20
926.652885
 30
0.0
 11
1078.490509
 21
927.652885
 31
0.0
  0
LINE
  5
2F0
100
AcDbEntity
  8
2
  6
CONTINUOUS
 62
     7
100
AcDbLine
 10
1076.490509
 20
927.652885
 30
0.0
 11
1070.990509
 21
926.652885
 31
0.0
  0
LINE
  5
2F1
100
AcDbEntity
  8
2
  6
CONTINUOUS
 62
     7
100
AcDbLine
 10
1087.490509
 20
939.152885
 30
0.0
 11
1087.490509
 21
913.652885
 31
0.0
  0
LINE
  5
2F2
100
AcDbEntity
  8
2
  6
CONTINUOUS
 62
     7
100
AcDbLine
 10
1087.490509
 20
904.652885
 30
0.0
 11
1087.490509
 21
890.152885
 31
0.0
  0
LINE
  5
2F3
100
AcDbEntity
  8
2
  6
CONTINUOUS
 62
     7
100
AcDbLine
 10
1067.490509
 20
909.652885
 30
0.0
 11
1067.490509
 21
890.152885
 31
0.0
  0
LINE
  5
2F4
100
AcDbEntity
  8
2
  6
CONTINUOUS
 62
     7
100
AcDbLine
 10
1067.490509
 20
939.152885
 30
0.0
 11
1067.490509
 21
913.652885
 31
0.0
  0
LINE
  5
2F5
100
AcDbEntity
  8
2
  6
CONTINUOUS
 62
     7
100
AcDbLine
 10
1078.490509
 20
939.152885
 30
0.0
 11
1076.490509
 21
939.152885
 31
0.0
  0
LINE
  5
2F6
100
AcDbEntity
  8
2
  6
CONTINUOUS
 62
     7
100
AcDbLine
 10
1087.990509
 20
890.152885
 30
0.0
 11
1087.490509
 21
890.152885
 31
0.0
  0
LINE
  5
2F7
100
AcDbEntity
  8
2
  6
CONTINUOUS
 62
     7
100
AcDbLine
 10
1087.490509
 20
890.152885
 30
0.0
 11
1085.990509
 21
889.652885
 31
0.0
  0
LINE
  5
2F8
100
AcDbEntity
  8
2
  6
CONTINUOUS
 62
     7
100
AcDbLine
 10
1087.990509
 20
939.152885
 30
0.0
 11
1087.490509
 21
939.152885
 31
0.0
  0
LINE
  5
2F9
100
AcDbEntity
  8
2
  6
CONTINUOUS
 62
     7
100
AcDbLine
 10
1067.490509
 20
939.152885
 30
0.0
 11
1066.990509
 21
939.152885
 31
0.0
  0
LINE
  5
2FA
100
AcDbEntity
  8
2
  6
CONTINUOUS
 62
     7
100
AcDbLine
 10
1067.490509
 20
890.152885
 30
0.0
 11
1066.990509
 21
890.152885
 31
0.0
  0
LINE
  5
2FB
100
AcDbEntity
  8
2
  6
CONTINUOUS
 62
     7
100
AcDbLine
 10
1068.990509
 20
889.652885
 30
0.0
 11
1067.490509
 21
890.152885
 31
0.0
  0
LINE
  5
2FC
100
AcDbEntity
  8
2
  6
CONTINUOUS
 62
     7
100
AcDbLine
 10
1077.490509
 20
849.652885
 30
0.0
 11
1071.490509
 21
853.116885
 31
0.0
  0
LINE
  5
2FD
100
AcDbEntity
  8
2
  6
CONTINUOUS
 62
     7
100
AcDbLine
 10
1071.490509
 20
853.116885
 30
0.0
 11
1068.990509
 21
889.652885
 31
0.0
  0
LINE
  5
2FE
100
AcDbEntity
  8
2
  6
CONTINUOUS
 62
     7
100
AcDbLine
 10
1083.490509
 20
853.116885
 30
0.0
 11
1085.990509
 21
889.652885
 31
0.0
  0
LINE
  5
2FF
100
AcDbEntity
  8
2
  6
CONTINUOUS
 62
     7
100
AcDbLine
 10
1077.490509
 20
849.652885
 30
0.0
 11
1083.490509
 21
853.116885
 31
0.0
  0
LINE
  5
300
100
AcDbEntity
  8
2
  6
CONTINUOUS
 62
     7
100
AcDbLine
 10
1083.627309
 20
894.652885
 30
0.0
 11
1077.490509
 21
894.652885
 31
0.0
  0
LINE
  5
301
100
AcDbEntity
  8
2
  6
CONTINUOUS
 62
     7
100
AcDbLine
 10
1083.627309
 20
894.652885
 30
0.0
 11
1084.534509
 21
893.746485
 31
0.0
  0
LINE
  5
302
100
AcDbEntity
  8
2
  6
CONTINUOUS
 62
     7
100
AcDbLine
 10
1071.352909
 20
894.652885
 30
0.0
 11
1077.490509
 21
894.652885
 31
0.0
  0
LINE
  5
303
100
AcDbEntity
  8
2
  6
CONTINUOUS
 62
     7
100
AcDbLine
 10
1071.352909
 20
894.652885
 30
0.0
 11
1070.446509
 21
893.746485
 31
0.0
  0
LINE
  5
304
100
AcDbEntity
  8
2
  6
CONTINUOUS
 62
     7
100
AcDbLine
 10
1079.490509
 20
913.152885
 30
0.0
 11
1079.490509
 21
910.152885
 31
0.0
  0
LINE
  5
305
100
AcDbEntity
  8
2
  6
CONTINUOUS
 62
     7
100
AcDbLine
 10
1075.490509
 20
913.152885
 30
0.0
 11
1075.490509
 21
910.152885
 31
0.0
  0
LINE
  5
306
100
AcDbEntity
  8
2
  6
CONTINUOUS
 62
     7
100
AcDbLine
 10
1079.511309
 20
915.152885
 30
0.0
 11
1081.531309
 21
911.652885
 31
0.0
  0
LINE
  5
307
100
AcDbEntity
  8
2
  6
CONTINUOUS
 62
     7
100
AcDbLine
 10
1081.532109
 20
911.652885
 30
0.0
 11
1079.511309
 21
908.152885
 31
0.0
  0
LINE
  5
308
100
AcDbEntity
  8
2
  6
CONTINUOUS
 62
     7
100
AcDbLine
 10
1075.469709
 20
908.152885
 30
0.0
 11
1079.511309
 21
908.152885
 31
0.0
  0
LINE
  5
309
100
AcDbEntity
  8
2
  6
CONTINUOUS
 62
     7
100
AcDbLine
 10
1073.448909
 20
911.652885
 30
0.0
 11
1075.469709
 21
908.152885
 31
0.0
  0
LINE
  5
30A
100
AcDbEntity
  8
2
  6
CONTINUOUS
 62
     7
100
AcDbLine
 10
1075.469709
 20
915.152885
 30
0.0
 11
1073.448909
 21
911.652885
 31
0.0
  0
LINE
  5
30B
100
AcDbEntity
  8
2
  6
CONTINUOUS
 62
     7
100
AcDbLine
 10
1079.511309
 20
915.152885
 30
0.0
 11
1075.469709
 21
915.152885
 31
0.0
  0
LINE
  5
30C
100
AcDbEntity
  8
2
  6
CONTINUOUS
 62
     7
100
AcDbLine
 10
1084.490509
 20
900.652885
 30
0.0
 11
1070.490509
 21
900.652885
 31
0.0
  0
LINE
  5
30D
100
AcDbEntity
  8
2
  6
CONTINUOUS
 62
     7
100
AcDbLine
 10
1084.490509
 20
900.652885
 30
0.0
 11
1085.490509
 21
899.652885
 31
0.0
  0
LINE
  5
30E
100
AcDbEntity
  8
2
  6
CONTINUOUS
 62
     7
100
AcDbLine
 10
1070.490509
 20
900.652885
 30
0.0
 11
1069.490509
 21
899.652885
 31
0.0
  0
LINE
  5
30F
100
AcDbEntity
  8
2
  6
CONTINUOUS
 62
     7
100
AcDbLine
 10
1087.990509
 20
909.652885
 30
0.0
 11
1084.490509
 21
909.652885
 31
0.0
  0
LINE
  5
310
100
AcDbEntity
  8
2
  6
CONTINUOUS
 62
     7
100
AcDbLine
 10
1070.490509
 20
909.652885
 30
0.0
 11
1066.990509
 21
909.652885
 31
0.0
  0
LINE
  5
311
100
AcDbEntity
  8
2
  6
CONTINUOUS
 62
     7
100
AcDbLine
 10
1070.781709
 20
913.652885
 30
0.0
 11
1066.990509
 21
913.652885
 31
0.0
  0
LINE
  5
312
100
AcDbEntity
  8
2
  6
CONTINUOUS
 62
     7
100
AcDbLine
 10
1087.990509
 20
904.652885
 30
0.0
 11
1084.490509
 21
904.652885
 31
0.0
  0
LINE
  5
313
100
AcDbEntity
  8
2
  6
CONTINUOUS
 62
     7
100
AcDbLine
 10
1083.990509
 20
926.652885
 30
0.0
 11
1083.990509
 21
922.152885
 31
0.0
  0
LINE
  5
314
100
AcDbEntity
  8
2
  6
CONTINUOUS
 62
     7
100
AcDbLine
 10
1085.990509
 20
889.652885
 30
0.0
 11
1085.490509
 21
892.488085
 31
0.0
  0
LINE
  5
315
100
AcDbEntity
  8
2
  6
CONTINUOUS
 62
     7
100
AcDbLine
 10
1085.490509
 20
899.652885
 30
0.0
 11
1085.490509
 21
892.488085
 31
0.0
  0
LINE
  5
316
100
AcDbEntity
  8
2
  6
CONTINUOUS
 62
     7
100
AcDbLine
 10
1069.490509
 20
899.652885
 30
0.0
 11
1069.490509
 21
892.488085
 31
0.0
  0
LINE
  5
317
100
AcDbEntity
  8
2
  6
CONTINUOUS
 62
     7
100
AcDbLine
 10
1068.990509
 20
889.652885
 30
0.0
 11
1069.490509
 21
892.488085
 31
0.0
  0
LINE
  5
318
100
AcDbEntity
  8
2
  6
CONTINUOUS
 62
     7
100
AcDbLine
 10
968.490509
 20
954.652885
 30
0.0
 11
786.490509
 21
954.652885
 31
0.0
  0
LINE
  5
319
100
AcDbEntity
  8
2
  6
CONTINUOUS
 62
     7
100
AcDbLine
 10
686.490509
 20
954.652885
 30
0.0
 11
686.490509
 21
946.652885
 31
0.0
  0
LINE
  5
31A
100
AcDbEntity
  8
2
  6
CONTINUOUS
 62
     7
100
AcDbLine
 10
686.490509
 20
946.652885
 30
0.0
 11
677.490509
 21
946.652885
 31
0.0
  0
LINE
  5
31B
100
AcDbEntity
  8
2
  6
CONTINUOUS
 62
     7
100
AcDbLine
 10
685.836909
 20
939.652885
 30
0.0
 11
686.020909
 21
946.652885
 31
0.0
  0
LINE
  5
31C
100
AcDbEntity
  8
2
  6
CONTINUOUS
 62
     7
100
AcDbLine
 10
684.982509
 20
939.652885
 30
0.0
 11
685.124909
 21
945.101685
 31
0.0
  0
LINE
  5
31D
100
AcDbEntity
  8
2
  6
CONTINUOUS
 62
     7
100
AcDbLine
 10
686.020909
 20
946.652885
 30
0.0
 11
685.124909
 21
945.101685
 31
0.0
  0
LINE
  5
31E
100
AcDbEntity
  8
2
  6
CONTINUOUS
 62
     7
100
AcDbLine
 10
685.980109
 20
945.101685
 30
0.0
 11
677.490509
 21
945.101685
 31
0.0
  0
LINE
  5
31F
100
AcDbEntity
  8
2
  6
CONTINUOUS
 62
     7
100
AcDbLine
 10
669.000909
 20
945.101685
 30
0.0
 11
677.490509
 21
945.101685
 31
0.0
  0
LINE
  5
320
100
AcDbEntity
  8
2
  6
CONTINUOUS
 62
     7
100
AcDbLine
 10
668.490509
 20
954.652885
 30
0.0
 11
668.490509
 21
946.652885
 31
0.0
  0
LINE
  5
321
100
AcDbEntity
  8
2
  6
CONTINUOUS
 62
     7
100
AcDbLine
 10
668.490509
 20
946.652885
 30
0.0
 11
677.490509
 21
946.652885
 31
0.0
  0
LINE
  5
322
100
AcDbEntity
  8
2
  6
CONTINUOUS
 62
     7
100
AcDbLine
 10
669.143309
 20
939.652885
 30
0.0
 11
668.960109
 21
946.652885
 31
0.0
  0
LINE
  5
323
100
AcDbEntity
  8
2
  6
CONTINUOUS
 62
     7
100
AcDbLine
 10
669.998509
 20
939.652885
 30
0.0
 11
669.855309
 21
945.101685
 31
0.0
  0
LINE
  5
324
100
AcDbEntity
  8
2
  6
CONTINUOUS
 62
     7
100
AcDbLine
 10
668.960109
 20
946.652885
 30
0.0
 11
669.855309
 21
945.101685
 31
0.0
  0
LINE
  5
325
100
AcDbEntity
  8
2
  6
CONTINUOUS
 62
     7
100
AcDbLine
 10
668.490509
 20
951.652885
 30
0.0
 11
665.490509
 21
954.652885
 31
0.0
  0
LINE
  5
326
100
AcDbEntity
  8
2
  6
CONTINUOUS
 62
     7
100
AcDbLine
 10
686.490509
 20
951.652885
 30
0.0
 11
689.490509
 21
954.652885
 31
0.0
  0
LINE
  5
327
100
AcDbEntity
  8
2
  6
CENTER
 62
     7
100
AcDbLine
 10
677.490509
 20
991.002485
 30
0.0
 11
677.490509
 21
940.002485
 31
0.0
  0
LINE
  5
328
100
AcDbEntity
  8
2
  6
CENTER
 62
     7
100
AcDbLine
 10
694.116109
 20
911.652885
 30
0.0
 11
663.771309
 21
911.652885
 31
0.0
  0
LINE
  5
329
100
AcDbEntity
  8
2
  6
CENTER
 62
     7
100
AcDbLine
 10
677.490509
 20
943.804885
 30
0.0
 11
677.490509
 21
843.444085
 31
0.0
  0
LINE
  5
32A
100
AcDbEntity
  8
2
  6
CONTINUOUS
 62
     7
100
AcDbLine
 10
687.990509
 20
939.652885
 30
0.0
 11
666.990509
 21
939.652885
 31
0.0
  0
LINE
  5
32B
100
AcDbEntity
  8
2
  6
CONTINUOUS
 62
     7
100
AcDbLine
 10
687.990509
 20
889.652885
 30
0.0
 11
685.990509
 21
889.652885
 31
0.0
  0
LINE
  5
32C
100
AcDbEntity
  8
2
  6
CONTINUOUS
 62
     7
100
AcDbLine
 10
687.990509
 20
939.652885
 30
0.0
 11
687.990509
 21
889.652885
 31
0.0
  0
LINE
  5
32D
100
AcDbEntity
  8
2
  6
CONTINUOUS
 62
     7
100
AcDbLine
 10
666.990509
 20
939.652885
 30
0.0
 11
666.990509
 21
889.652885
 31
0.0
  0
LINE
  5
32E
100
AcDbEntity
  8
2
  6
CONTINUOUS
 62
     7
100
AcDbLine
 10
668.990509
 20
889.652885
 30
0.0
 11
666.990509
 21
889.652885
 31
0.0
  0
LINE
  5
32F
100
AcDbEntity
  8
2
  6
CONTINUOUS
 62
     7
100
AcDbLine
 10
687.990509
 20
913.652885
 30
0.0
 11
684.490509
 21
913.652885
 31
0.0
  0
LINE
  5
330
100
AcDbEntity
  8
2
  6
CONTINUOUS
 62
     7
100
AcDbLine
 10
683.990509
 20
926.652885
 30
0.0
 11
670.990509
 21
926.652885
 31
0.0
  0
LINE
  5
331
100
AcDbEntity
  8
2
  6
CONTINUOUS
 62
     7
100
AcDbLine
 10
678.490509
 20
939.152885
 30
0.0
 11
678.490509
 21
927.652885
 31
0.0
  0
LINE
  5
332
100
AcDbEntity
  8
2
  6
CONTINUOUS
 62
     7
100
AcDbLine
 10
676.490509
 20
939.152885
 30
0.0
 11
676.490509
 21
927.652885
 31
0.0
  0
LINE
  5
333
100
AcDbEntity
  8
2
  6
CONTINUOUS
 62
     7
100
AcDbLine
 10
670.990509
 20
926.652885
 30
0.0
 11
670.990509
 21
914.251285
 31
0.0
  0
LINE
  5
334
100
AcDbEntity
  8
2
  6
CONTINUOUS
 62
     7
100
AcDbLine
 10
678.490509
 20
927.652885
 30
0.0
 11
676.490509
 21
927.652885
 31
0.0
  0
LINE
  5
335
100
AcDbEntity
  8
2
  6
CONTINUOUS
 62
     7
100
AcDbLine
 10
683.990509
 20
926.652885
 30
0.0
 11
678.490509
 21
927.652885
 31
0.0
  0
LINE
  5
336
100
AcDbEntity
  8
2
  6
CONTINUOUS
 62
     7
100
AcDbLine
 10
676.490509
 20
927.652885
 30
0.0
 11
670.990509
 21
926.652885
 31
0.0
  0
LINE
  5
337
100
AcDbEntity
  8
2
  6
CONTINUOUS
 62
     7
100
AcDbLine
 10
687.490509
 20
939.152885
 30
0.0
 11
687.490509
 21
913.652885
 31
0.0
  0
LINE
  5
338
100
AcDbEntity
  8
2
  6
CONTINUOUS
 62
     7
100
AcDbLine
 10
687.490509
 20
904.652885
 30
0.0
 11
687.490509
 21
890.152885
 31
0.0
  0
LINE
  5
339
100
AcDbEntity
  8
2
  6
CONTINUOUS
 62
     7
100
AcDbLine
 10
667.490509
 20
909.652885
 30
0.0
 11
667.490509
 21
890.152885
 31
0.0
  0
LINE
  5
33A
100
AcDbEntity
  8
2
  6
CONTINUOUS
 62
     7
100
AcDbLine
 10
667.490509
 20
939.152885
 30
0.0
 11
667.490509
 21
913.652885
 31
0.0
  0
LINE
  5
33B
100
AcDbEntity
  8
2
  6
CONTINUOUS
 62
     7
100
AcDbLine
 10
678.490509
 20
939.152885
 30
0.0
 11
676.490509
 21
939.152885
 31
0.0
  0
LINE
  5
33C
100
AcDbEntity
  8
2
  6
CONTINUOUS
 62
     7
100
AcDbLine
 10
687.990509
 20
890.152885
 30
0.0
 11
687.490509
 21
890.152885
 31
0.0
  0
LINE
  5
33D
100
AcDbEntity
  8
2
  6
CONTINUOUS
 62
     7
100
AcDbLine
 10
687.490509
 20
890.152885
 30
0.0
 11
685.990509
 21
889.652885
 31
0.0
  0
LINE
  5
33E
100
AcDbEntity
  8
2
  6
CONTINUOUS
 62
     7
100
AcDbLine
 10
687.990509
 20
939.152885
 30
0.0
 11
687.490509
 21
939.152885
 31
0.0
  0
LINE
  5
33F
100
AcDbEntity
  8
2
  6
CONTINUOUS
 62
     7
100
AcDbLine
 10
667.490509
 20
939.152885
 30
0.0
 11
666.990509
 21
939.152885
 31
0.0
  0
LINE
  5
340
100
AcDbEntity
  8
2
  6
CONTINUOUS
 62
     7
100
AcDbLine
 10
667.490509
 20
890.152885
 30
0.0
 11
666.990509
 21
890.152885
 31
0.0
  0
LINE
  5
341
100
AcDbEntity
  8
2
  6
CONTINUOUS
 62
     7
100
AcDbLine
 10
668.990509
 20
889.652885
 30
0.0
 11
667.490509
 21
890.152885
 31
0.0
  0
LINE
  5
342
100
AcDbEntity
  8
2
  6
CONTINUOUS
 62
     7
100
AcDbLine
 10
677.490509
 20
849.652885
 30
0.0
 11
671.490509
 21
853.116885
 31
0.0
  0
LINE
  5
343
100
AcDbEntity
  8
2
  6
CONTINUOUS
 62
     7
100
AcDbLine
 10
671.490509
 20
853.116885
 30
0.0
 11
668.990509
 21
889.652885
 31
0.0
  0
LINE
  5
344
100
AcDbEntity
  8
2
  6
CONTINUOUS
 62
     7
100
AcDbLine
 10
683.490509
 20
853.116885
 30
0.0
 11
685.990509
 21
889.652885
 31
0.0
  0
LINE
  5
345
100
AcDbEntity
  8
2
  6
CONTINUOUS
 62
     7
100
AcDbLine
 10
677.490509
 20
849.652885
 30
0.0
 11
683.490509
 21
853.116885
 31
0.0
  0
LINE
  5
346
100
AcDbEntity
  8
2
  6
CONTINUOUS
 62
     7
100
AcDbLine
 10
683.627309
 20
894.652885
 30
0.0
 11
677.490509
 21
894.652885
 31
0.0
  0
LINE
  5
347
100
AcDbEntity
  8
2
  6
CONTINUOUS
 62
     7
100
AcDbLine
 10
683.627309
 20
894.652885
 30
0.0
 11
684.534509
 21
893.746485
 31
0.0
  0
LINE
  5
348
100
AcDbEntity
  8
2
  6
CONTINUOUS
 62
     7
100
AcDbLine
 10
671.352909
 20
894.652885
 30
0.0
 11
677.490509
 21
894.652885
 31
0.0
  0
LINE
  5
349
100
AcDbEntity
  8
2
  6
CONTINUOUS
 62
     7
100
AcDbLine
 10
671.352909
 20
894.652885
 30
0.0
 11
670.445709
 21
893.746485
 31
0.0
  0
LINE
  5
34A
100
AcDbEntity
  8
2
  6
CONTINUOUS
 62
     7
100
AcDbLine
 10
679.490509
 20
913.152885
 30
0.0
 11
679.490509
 21
910.152885
 31
0.0
  0
LINE
  5
34B
100
AcDbEntity
  8
2
  6
CONTINUOUS
 62
     7
100
AcDbLine
 10
675.490509
 20
913.152885
 30
0.0
 11
675.490509
 21
910.152885
 31
0.0
  0
LINE
  5
34C
100
AcDbEntity
  8
2
  6
CONTINUOUS
 62
     7
100
AcDbLine
 10
679.511309
 20
915.152885
 30
0.0
 11
681.531309
 21
911.652885
 31
0.0
  0
LINE
  5
34D
100
AcDbEntity
  8
2
  6
CONTINUOUS
 62
     7
100
AcDbLine
 10
681.532109
 20
911.652885
 30
0.0
 11
679.511309
 21
908.152885
 31
0.0
  0
LINE
  5
34E
100
AcDbEntity
  8
2
  6
CONTINUOUS
 62
     7
100
AcDbLine
 10
675.469709
 20
908.152885
 30
0.0
 11
679.511309
 21
908.152885
 31
0.0
  0
LINE
  5
34F
100
AcDbEntity
  8
2
  6
CONTINUOUS
 62
     7
100
AcDbLine
 10
673.448909
 20
911.652885
 30
0.0
 11
675.469709
 21
908.152885
 31
0.0
  0
LINE
  5
350
100
AcDbEntity
  8
2
  6
CONTINUOUS
 62
     7
100
AcDbLine
 10
675.469709
 20
915.152885
 30
0.0
 11
673.448909
 21
911.652885
 31
0.0
  0
LINE
  5
351
100
AcDbEntity
  8
2
  6
CONTINUOUS
 62
     7
100
AcDbLine
 10
679.511309
 20
915.152885
 30
0.0
 11
675.469709
 21
915.152885
 31
0.0
  0
LINE
  5
352
100
AcDbEntity
  8
2
  6
CONTINUOUS
 62
     7
100
AcDbLine
 10
684.490509
 20
900.652885
 30
0.0
 11
670.490509
 21
900.652885
 31
0.0
  0
LINE
  5
353
100
AcDbEntity
  8
2
  6
CONTINUOUS
 62
     7
100
AcDbLine
 10
684.490509
 20
900.652885
 30
0.0
 11
685.490509
 21
899.652885
 31
0.0
  0
LINE
  5
354
100
AcDbEntity
  8
2
  6
CONTINUOUS
 62
     7
100
AcDbLine
 10
670.490509
 20
900.652885
 30
0.0
 11
669.490509
 21
899.652885
 31
0.0
  0
LINE
  5
355
100
AcDbEntity
  8
2
  6
CONTINUOUS
 62
     7
100
AcDbLine
 10
687.990509
 20
909.652885
 30
0.0
 11
684.490509
 21
909.652885
 31
0.0
  0
LINE
  5
356
100
AcDbEntity
  8
2
  6
CONTINUOUS
 62
     7
100
AcDbLine
 10
670.490509
 20
909.652885
 30
0.0
 11
666.990509
 21
909.652885
 31
0.0
  0
LINE
  5
357
100
AcDbEntity
  8
2
  6
CONTINUOUS
 62
     7
100
AcDbLine
 10
670.781709
 20
913.652885
 30
0.0
 11
666.990509
 21
913.652885
 31
0.0
  0
LINE
  5
358
100
AcDbEntity
  8
2
  6
CONTINUOUS
 62
     7
100
AcDbLine
 10
687.990509
 20
904.652885
 30
0.0
 11
684.490509
 21
904.652885
 31
0.0
  0
LINE
  5
359
100
AcDbEntity
  8
2
  6
CONTINUOUS
 62
     7
100
AcDbLine
 10
683.990509
 20
926.652885
 30
0.0
 11
683.990509
 21
922.152885
 31
0.0
  0
LINE
  5
35A
100
AcDbEntity
  8
2
  6
CONTINUOUS
 62
     7
100
AcDbLine
 10
685.990509
 20
889.652885
 30
0.0
 11
685.490509
 21
892.488085
 31
0.0
  0
LINE
  5
35B
100
AcDbEntity
  8
2
  6
CONTINUOUS
 62
     7
100
AcDbLine
 10
685.490509
 20
899.652885
 30
0.0
 11
685.490509
 21
892.488085
 31
0.0
  0
LINE
  5
35C
100
AcDbEntity
  8
2
  6
CONTINUOUS
 62
     7
100
AcDbLine
 10
669.489709
 20
899.652885
 30
0.0
 11
669.489709
 21
892.488085
 31
0.0
  0
LINE
  5
35D
100
AcDbEntity
  8
2
  6
CONTINUOUS
 62
     7
100
AcDbLine
 10
668.990509
 20
889.652885
 30
0.0
 11
669.490509
 21
892.488085
 31
0.0
  0
LINE
  5
35E
100
AcDbEntity
  8
2
  6
CONTINUOUS
 62
     7
100
AcDbLine
 10
1668.490509
 20
976.352885
 30
0.0
 11
1673.490509
 21
976.352885
 31
0.0
  0
LINE
  5
35F
100
AcDbEntity
  8
2
  6
CONTINUOUS
 62
     7
100
AcDbLine
 10
1686.490509
 20
976.352885
 30
0.0
 11
1681.490509
 21
976.352885
 31
0.0
  0
LINE
  5
360
100
AcDbEntity
  8
2
  6
CONTINUOUS
 62
     7
100
AcDbLine
 10
156.990509
 20
954.652885
 30
0.0
 11
156.990509
 21
804.652885
 31
0.0
  0
LINE
  5
361
100
AcDbEntity
  8
2
  6
CONTINUOUS
 62
     7
100
AcDbLine
 10
188.990509
 20
954.652885
 30
0.0
 11
188.990509
 21
804.652885
 31
0.0
  0
LINE
  5
362
100
AcDbEntity
  8
2
  6
CONTINUOUS
 62
     7
100
AcDbLine
 10
156.990509
 20
804.652885
 30
0.0
 11
188.990509
 21
804.652885
 31
0.0
  0
LINE
  5
363
100
AcDbEntity
  8
2
  6
CONTINUOUS
 62
     7
100
AcDbLine
 10
156.990509
 20
951.652885
 30
0.0
 11
188.990509
 21
951.652885
 31
0.0
  0
LINE
  5
364
100
AcDbEntity
  8
2
  6
CONTINUOUS
 62
     7
100
AcDbLine
 10
158.990509
 20
949.652885
 30
0.0
 11
158.990509
 21
848.471285
 31
0.0
  0
LINE
  5
365
100
AcDbEntity
  8
2
  6
CONTINUOUS
 62
     7
100
AcDbLine
 10
158.990509
 20
848.471285
 30
0.0
 11
167.990509
 21
856.652885
 31
0.0
  0
LINE
  5
366
100
AcDbEntity
  8
2
  6
CONTINUOUS
 62
     7
100
AcDbLine
 10
158.990509
 20
864.834485
 30
0.0
 11
167.990509
 21
856.652885
 31
0.0
  0
LINE
  5
367
100
AcDbEntity
  8
2
  6
CONTINUOUS
 62
     7
100
AcDbLine
 10
156.990509
 20
848.471285
 30
0.0
 11
158.990509
 21
848.471285
 31
0.0
  0
LINE
  5
368
100
AcDbEntity
  8
2
  6
CONTINUOUS
 62
     7
100
AcDbLine
 10
158.990509
 20
949.652885
 30
0.0
 11
185.240109
 21
949.652885
 31
0.0
  0
LINE
  5
369
100
AcDbEntity
  8
2
  6
CONTINUOUS
 62
     7
100
AcDbLine
 10
158.990509
 20
949.652885
 30
0.0
 11
156.990509
 21
951.652885
 31
0.0
  0
LINE
  5
36A
100
AcDbEntity
  8
2
  6
CONTINUOUS
 62
     7
100
AcDbLine
 10
174.990509
 20
938.652885
 30
0.0
 11
179.990509
 21
938.652885
 31
0.0
  0
LINE
  5
36B
100
AcDbEntity
  8
2
  6
CONTINUOUS
 62
     7
100
AcDbLine
 10
185.240109
 20
951.652885
 30
0.0
 11
185.240109
 21
949.652885
 31
0.0
  0
LINE
  5
36C
100
AcDbEntity
  8
2
  6
CONTINUOUS
 62
     7
100
AcDbLine
 10
169.740109
 20
951.652885
 30
0.0
 11
169.740109
 21
949.652885
 31
0.0
  0
LINE
  5
36D
100
AcDbEntity
  8
2
  6
CONTINUOUS
 62
     7
100
AcDbLine
 10
174.490509
 20
944.652885
 30
0.0
 11
174.490509
 21
939.152885
 31
0.0
  0
LINE
  5
36E
100
AcDbEntity
  8
2
  6
CONTINUOUS
 62
     7
100
AcDbLine
 10
180.490509
 20
944.652885
 30
0.0
 11
180.490509
 21
939.152885
 31
0.0
  0
LINE
  5
36F
100
AcDbEntity
  8
2
  6
CONTINUOUS
 62
     7
100
AcDbLine
 10
172.490509
 20
949.652885
 30
0.0
 11
172.490509
 21
945.152885
 31
0.0
  0
LINE
  5
370
100
AcDbEntity
  8
2
  6
CONTINUOUS
 62
     7
100
AcDbLine
 10
172.990509
 20
944.652885
 30
0.0
 11
177.490509
 21
944.652885
 31
0.0
  0
LINE
  5
371
100
AcDbEntity
  8
2
  6
CONTINUOUS
 62
     7
100
AcDbLine
 10
174.990509
 20
949.652885
 30
0.0
 11
174.990509
 21
945.152885
 31
0.0
  0
LINE
  5
372
100
AcDbEntity
  8
2
  6
CONTINUOUS
 62
     7
100
AcDbLine
 10
172.490509
 20
945.152885
 30
0.0
 11
172.990509
 21
944.652885
 31
0.0
  0
LINE
  5
373
100
AcDbEntity
  8
2
  6
CONTINUOUS
 62
     7
100
AcDbLine
 10
182.490509
 20
949.652885
 30
0.0
 11
182.490509
 21
945.152885
 31
0.0
  0
LINE
  5
374
100
AcDbEntity
  8
2
  6
CONTINUOUS
 62
     7
100
AcDbLine
 10
182.490509
 20
945.152885
 30
0.0
 11
181.990509
 21
944.652885
 31
0.0
  0
LINE
  5
375
100
AcDbEntity
  8
2
  6
CONTINUOUS
 62
     7
100
AcDbLine
 10
181.990509
 20
944.652885
 30
0.0
 11
177.490509
 21
944.652885
 31
0.0
  0
LINE
  5
376
100
AcDbEntity
  8
2
  6
CONTINUOUS
 62
     7
100
AcDbLine
 10
179.990509
 20
949.652885
 30
0.0
 11
179.990509
 21
945.152885
 31
0.0
  0
LINE
  5
377
100
AcDbEntity
  8
2
  6
CONTINUOUS
 62
     7
100
AcDbLine
 10
174.490509
 20
939.152885
 30
0.0
 11
174.990509
 21
938.652885
 31
0.0
  0
LINE
  5
378
100
AcDbEntity
  8
2
  6
CONTINUOUS
 62
     7
100
AcDbLine
 10
179.990509
 20
938.652885
 30
0.0
 11
180.490509
 21
939.152885
 31
0.0
  0
LINE
  5
379
100
AcDbEntity
  8
2
  6
CENTER
 62
     7
100
AcDbLine
 10
177.490509
 20
983.152085
 30
0.0
 11
177.490509
 21
927.932085
 31
0.0
  0
LINE
  5
37A
100
AcDbEntity
  8
2
  6
CENTER
 62
     7
100
AcDbLine
 10
838.689709
 20
679.600885
 30
0.0
 11
838.689709
 21
561.454485
 31
0.0
  0
LINE
  5
37B
100
AcDbEntity
  8
2
  6
CENTER
 62
     7
100
AcDbLine
 10
849.723309
 20
621.036885
 30
0.0
 11
778.428109
 21
621.036885
 31
0.0
  0
LINE
  5
37C
100
AcDbEntity
  8
2
  6
CENTER
 62
     7
100
AcDbLine
 10
848.025709
 20
611.700885
 30
0.0
 11
795.912109
 21
663.814485
 31
0.0
  0
LINE
  5
37D
100
AcDbEntity
  8
2
  6
CENTER
 62
     7
100
AcDbLine
 10
796.591309
 20
578.939285
 30
0.0
 11
849.384109
 21
631.731285
 31
0.0
  0
LINE
  5
37E
100
AcDbEntity
  8
2
  6
CONTINUOUS
 62
     7
100
AcDbLine
 10
1906.990509
 20
954.652885
 30
0.0
 11
1906.990509
 21
804.652885
 31
0.0
  0
LINE
  5
37F
100
AcDbEntity
  8
2
  6
CONTINUOUS
 62
     7
100
AcDbLine
 10
1938.990509
 20
954.652885
 30
0.0
 11
1938.990509
 21
804.652885
 31
0.0
  0
LINE
  5
380
100
AcDbEntity
  8
2
  6
CONTINUOUS
 62
     7
100
AcDbLine
 10
1906.990509
 20
804.652885
 30
0.0
 11
1938.990509
 21
804.652885
 31
0.0
  0
LINE
  5
381
100
AcDbEntity
  8
2
  6
CONTINUOUS
 62
     7
100
AcDbLine
 10
1906.990509
 20
951.652885
 30
0.0
 11
1938.990509
 21
951.652885
 31
0.0
  0
LINE
  5
382
100
AcDbEntity
  8
2
  6
CONTINUOUS
 62
     7
100
AcDbLine
 10
1908.990509
 20
949.652885
 30
0.0
 11
1908.990509
 21
848.471285
 31
0.0
  0
LINE
  5
383
100
AcDbEntity
  8
2
  6
CONTINUOUS
 62
     7
100
AcDbLine
 10
1908.990509
 20
848.471285
 30
0.0
 11
1917.990509
 21
856.652885
 31
0.0
  0
LINE
  5
384
100
AcDbEntity
  8
2
  6
CONTINUOUS
 62
     7
100
AcDbLine
 10
1908.990509
 20
864.834485
 30
0.0
 11
1917.990509
 21
856.652885
 31
0.0
  0
LINE
  5
385
100
AcDbEntity
  8
2
  6
CONTINUOUS
 62
     7
100
AcDbLine
 10
1906.990509
 20
848.471285
 30
0.0
 11
1908.990509
 21
848.471285
 31
0.0
  0
LINE
  5
386
100
AcDbEntity
  8
2
  6
CONTINUOUS
 62
     7
100
AcDbLine
 10
1908.990509
 20
949.652885
 30
0.0
 11
1935.240109
 21
949.652885
 31
0.0
  0
LINE
  5
387
100
AcDbEntity
  8
2
  6
CONTINUOUS
 62
     7
100
AcDbLine
 10
1908.990509
 20
949.652885
 30
0.0
 11
1906.990509
 21
951.652885
 31
0.0
  0
LINE
  5
388
100
AcDbEntity
  8
2
  6
CONTINUOUS
 62
     7
100
AcDbLine
 10
1924.990509
 20
938.652885
 30
0.0
 11
1929.990509
 21
938.652885
 31
0.0
  0
LINE
  5
389
100
AcDbEntity
  8
2
  6
CONTINUOUS
 62
     7
100
AcDbLine
 10
1935.240109
 20
951.652885
 30
0.0
 11
1935.240109
 21
949.652885
 31
0.0
  0
LINE
  5
38A
100
AcDbEntity
  8
2
  6
CONTINUOUS
 62
     7
100
AcDbLine
 10
1919.740109
 20
951.652885
 30
0.0
 11
1919.740109
 21
949.652885
 31
0.0
  0
LINE
  5
38B
100
AcDbEntity
  8
2
  6
CONTINUOUS
 62
     7
100
AcDbLine
 10
1924.490509
 20
944.652885
 30
0.0
 11
1924.490509
 21
939.152885
 31
0.0
  0
LINE
  5
38C
100
AcDbEntity
  8
2
  6
CONTINUOUS
 62
     7
100
AcDbLine
 10
1930.490509
 20
944.652885
 30
0.0
 11
1930.490509
 21
939.152885
 31
0.0
  0
LINE
  5
38D
100
AcDbEntity
  8
2
  6
CONTINUOUS
 62
     7
100
AcDbLine
 10
1922.490509
 20
949.652885
 30
0.0
 11
1922.490509
 21
945.152885
 31
0.0
  0
LINE
  5
38E
100
AcDbEntity
  8
2
  6
CONTINUOUS
 62
     7
100
AcDbLine
 10
1922.990509
 20
944.652885
 30
0.0
 11
1927.490509
 21
944.652885
 31
0.0
  0
LINE
  5
38F
100
AcDbEntity
  8
2
  6
CONTINUOUS
 62
     7
100
AcDbLine
 10
1924.990509
 20
949.652885
 30
0.0
 11
1924.990509
 21
945.152885
 31
0.0
  0
LINE
  5
390
100
AcDbEntity
  8
2
  6
CONTINUOUS
 62
     7
100
AcDbLine
 10
1922.490509
 20
945.152885
 30
0.0
 11
1922.990509
 21
944.652885
 31
0.0
  0
LINE
  5
391
100
AcDbEntity
  8
2
  6
CONTINUOUS
 62
     7
100
AcDbLine
 10
1932.490509
 20
949.652885
 30
0.0
 11
1932.490509
 21
945.152885
 31
0.0
  0
LINE
  5
392
100
AcDbEntity
  8
2
  6
CONTINUOUS
 62
     7
100
AcDbLine
 10
1932.490509
 20
945.152885
 30
0.0
 11
1931.990509
 21
944.652885
 31
0.0
  0
LINE
  5
393
100
AcDbEntity
  8
2
  6
CONTINUOUS
 62
     7
100
AcDbLine
 10
1931.990509
 20
944.652885
 30
0.0
 11
1927.490509
 21
944.652885
 31
0.0
  0
LINE
  5
394
100
AcDbEntity
  8
2
  6
CONTINUOUS
 62
     7
100
AcDbLine
 10
1929.990509
 20
949.652885
 30
0.0
 11
1929.990509
 21
945.152885
 31
0.0
  0
LINE
  5
395
100
AcDbEntity
  8
2
  6
CONTINUOUS
 62
     7
100
AcDbLine
 10
1924.490509
 20
939.152885
 30
0.0
 11
1924.990509
 21
938.652885
 31
0.0
  0
LINE
  5
396
100
AcDbEntity
  8
2
  6
CONTINUOUS
 62
     7
100
AcDbLine
 10
1929.990509
 20
938.652885
 30
0.0
 11
1930.490509
 21
939.152885
 31
0.0
  0
LINE
  5
397
100
AcDbEntity
  8
2
  6
CENTER
 62
     7
100
AcDbLine
 10
1927.490509
 20
983.152085
 30
0.0
 11
1927.490509
 21
927.932085
 31
0.0
  0
LINE
  5
398
100
AcDbEntity
  8
2
  6
CONTINUOUS
 62
     7
100
AcDbLine
 10
992.629709
 20
610.187285
 30
0.0
 11
992.629709
 21
460.187285
 31
0.0
  0
LINE
  5
399
100
AcDbEntity
  8
2
  6
CONTINUOUS
 62
     7
100
AcDbLine
 10
1024.629709
 20
610.187285
 30
0.0
 11
1024.629709
 21
460.187285
 31
0.0
  0
LINE
  5
39A
100
AcDbEntity
  8
2
  6
CONTINUOUS
 62
     7
100
AcDbLine
 10
992.629709
 20
460.187285
 30
0.0
 11
1024.629709
 21
460.187285
 31
0.0
  0
LINE
  5
39B
100
AcDbEntity
  8
2
  6
CONTINUOUS
 62
     7
100
AcDbLine
 10
992.629709
 20
607.187285
 30
0.0
 11
1024.629709
 21
607.187285
 31
0.0
  0
LINE
  5
39C
100
AcDbEntity
  8
2
  6
CONTINUOUS
 62
     7
100
AcDbLine
 10
994.629709
 20
605.187285
 30
0.0
 11
994.629709
 21
504.005685
 31
0.0
  0
LINE
  5
39D
100
AcDbEntity
  8
2
  6
CONTINUOUS
 62
     7
100
AcDbLine
 10
994.629709
 20
504.005685
 30
0.0
 11
1003.629709
 21
512.187285
 31
0.0
  0
LINE
  5
39E
100
AcDbEntity
  8
2
  6
CONTINUOUS
 62
     7
100
AcDbLine
 10
994.629709
 20
520.368885
 30
0.0
 11
1003.629709
 21
512.187285
 31
0.0
  0
LINE
  5
39F
100
AcDbEntity
  8
2
  6
CONTINUOUS
 62
     7
100
AcDbLine
 10
992.629709
 20
504.005685
 30
0.0
 11
994.629709
 21
504.005685
 31
0.0
  0
LINE
  5
3A0
100
AcDbEntity
  8
2
  6
CONTINUOUS
 62
     7
100
AcDbLine
 10
994.629709
 20
605.187285
 30
0.0
 11
1020.880109
 21
605.187285
 31
0.0
  0
LINE
  5
3A1
100
AcDbEntity
  8
2
  6
CONTINUOUS
 62
     7
100
AcDbLine
 10
994.629709
 20
605.187285
 30
0.0
 11
992.629709
 21
607.187285
 31
0.0
  0
LINE
  5
3A2
100
AcDbEntity
  8
2
  6
CONTINUOUS
 62
     7
100
AcDbLine
 10
1010.629709
 20
594.187285
 30
0.0
 11
1015.629709
 21
594.187285
 31
0.0
  0
LINE
  5
3A3
100
AcDbEntity
  8
2
  6
CONTINUOUS
 62
     7
100
AcDbLine
 10
1020.880109
 20
607.187285
 30
0.0
 11
1020.880109
 21
605.187285
 31
0.0
  0
LINE
  5
3A4
100
AcDbEntity
  8
2
  6
CONTINUOUS
 62
     7
100
AcDbLine
 10
1005.380109
 20
607.187285
 30
0.0
 11
1005.380109
 21
605.187285
 31
0.0
  0
LINE
  5
3A5
100
AcDbEntity
  8
2
  6
CONTINUOUS
 62
     7
100
AcDbLine
 10
1010.129709
 20
600.187285
 30
0.0
 11
1010.129709
 21
594.687285
 31
0.0
  0
LINE
  5
3A6
100
AcDbEntity
  8
2
  6
CONTINUOUS
 62
     7
100
AcDbLine
 10
1016.129709
 20
600.187285
 30
0.0
 11
1016.129709
 21
594.687285
 31
0.0
  0
LINE
  5
3A7
100
AcDbEntity
  8
2
  6
CONTINUOUS
 62
     7
100
AcDbLine
 10
1008.129709
 20
605.187285
 30
0.0
 11
1008.129709
 21
600.687285
 31
0.0
  0
LINE
  5
3A8
100
AcDbEntity
  8
2
  6
CONTINUOUS
 62
     7
100
AcDbLine
 10
1008.629709
 20
600.187285
 30
0.0
 11
1013.129709
 21
600.187285
 31
0.0
  0
LINE
  5
3A9
100
AcDbEntity
  8
2
  6
CONTINUOUS
 62
     7
100
AcDbLine
 10
1010.629709
 20
605.187285
 30
0.0
 11
1010.629709
 21
600.687285
 31
0.0
  0
LINE
  5
3AA
100
AcDbEntity
  8
2
  6
CONTINUOUS
 62
     7
100
AcDbLine
 10
1008.129709
 20
600.687285
 30
0.0
 11
1008.629709
 21
600.187285
 31
0.0
  0
LINE
  5
3AB
100
AcDbEntity
  8
2
  6
CONTINUOUS
 62
     7
100
AcDbLine
 10
1018.129709
 20
605.187285
 30
0.0
 11
1018.129709
 21
600.687285
 31
0.0
  0
LINE
  5
3AC
100
AcDbEntity
  8
2
  6
CONTINUOUS
 62
     7
100
AcDbLine
 10
1018.129709
 20
600.687285
 30
0.0
 11
1017.629709
 21
600.187285
 31
0.0
  0
LINE
  5
3AD
100
AcDbEntity
  8
2
  6
CONTINUOUS
 62
     7
100
AcDbLine
 10
1017.629709
 20
600.187285
 30
0.0
 11
1013.129709
 21
600.187285
 31
0.0
  0
LINE
  5
3AE
100
AcDbEntity
  8
2
  6
CONTINUOUS
 62
     7
100
AcDbLine
 10
1015.629709
 20
605.187285
 30
0.0
 11
1015.629709
 21
600.687285
 31
0.0
  0
LINE
  5
3AF
100
AcDbEntity
  8
2
  6
CONTINUOUS
 62
     7
100
AcDbLine
 10
1010.129709
 20
594.687285
 30
0.0
 11
1010.629709
 21
594.187285
 31
0.0
  0
LINE
  5
3B0
100
AcDbEntity
  8
2
  6
CONTINUOUS
 62
     7
100
AcDbLine
 10
1015.629709
 20
594.187285
 30
0.0
 11
1016.129709
 21
594.687285
 31
0.0
  0
LINE
  5
3B1
100
AcDbEntity
  8
2
  6
CENTER
 62
     7
100
AcDbLine
 10
1013.129709
 20
638.686485
 30
0.0
 11
1013.129709
 21
583.466485
 31
0.0
  0
LINE
  5
3B2
100
AcDbEntity
  8
2
  6
CONTINUOUS
 62
     7
100
AcDbLine
 10
2742.629709
 20
610.187285
 30
0.0
 11
2742.629709
 21
460.187285
 31
0.0
  0
LINE
  5
3B3
100
AcDbEntity
  8
2
  6
CONTINUOUS
 62
     7
100
AcDbLine
 10
2774.629709
 20
610.187285
 30
0.0
 11
2774.629709
 21
460.187285
 31
0.0
  0
LINE
  5
3B4
100
AcDbEntity
  8
2
  6
CONTINUOUS
 62
     7
100
AcDbLine
 10
2742.629709
 20
460.187285
 30
0.0
 11
2774.629709
 21
460.187285
 31
0.0
  0
LINE
  5
3B5
100
AcDbEntity
  8
2
  6
CONTINUOUS
 62
     7
100
AcDbLine
 10
2742.629709
 20
607.187285
 30
0.0
 11
2774.629709
 21
607.187285
 31
0.0
  0
LINE
  5
3B6
100
AcDbEntity
  8
2
  6
CONTINUOUS
 62
     7
100
AcDbLine
 10
2744.629709
 20
605.187285
 30
0.0
 11
2744.629709
 21
504.005685
 31
0.0
  0
LINE
  5
3B7
100
AcDbEntity
  8
2
  6
CONTINUOUS
 62
     7
100
AcDbLine
 10
2744.629709
 20
504.004885
 30
0.0
 11
2753.629709
 21
512.187285
 31
0.0
  0
LINE
  5
3B8
100
AcDbEntity
  8
2
  6
CONTINUOUS
 62
     7
100
AcDbLine
 10
2744.629709
 20
520.368885
 30
0.0
 11
2753.629709
 21
512.187285
 31
0.0
  0
LINE
  5
3B9
100
AcDbEntity
  8
2
  6
CONTINUOUS
 62
     7
100
AcDbLine
 10
2742.629709
 20
504.005685
 30
0.0
 11
2744.629709
 21
504.005685
 31
0.0
  0
LINE
  5
3BA
100
AcDbEntity
  8
2
  6
CONTINUOUS
 62
     7
100
AcDbLine
 10
2744.629709
 20
605.187285
 30
0.0
 11
2770.879309
 21
605.187285
 31
0.0
  0
LINE
  5
3BB
100
AcDbEntity
  8
2
  6
CONTINUOUS
 62
     7
100
AcDbLine
 10
2744.629709
 20
605.187285
 30
0.0
 11
2742.629709
 21
607.187285
 31
0.0
  0
LINE
  5
3BC
100
AcDbEntity
  8
2
  6
CONTINUOUS
 62
     7
100
AcDbLine
 10
2760.629709
 20
594.187285
 30
0.0
 11
2765.629709
 21
594.187285
 31
0.0
  0
LINE
  5
3BD
100
AcDbEntity
  8
2
  6
CONTINUOUS
 62
     7
100
AcDbLine
 10
2770.879309
 20
607.187285
 30
0.0
 11
2770.879309
 21
605.187285
 31
0.0
  0
LINE
  5
3BE
100
AcDbEntity
  8
2
  6
CONTINUOUS
 62
     7
100
AcDbLine
 10
2755.379309
 20
607.187285
 30
0.0
 11
2755.379309
 21
605.187285
 31
0.0
  0
LINE
  5
3BF
100
AcDbEntity
  8
2
  6
CONTINUOUS
 62
     7
100
AcDbLine
 10
2760.129709
 20
600.187285
 30
0.0
 11
2760.129709
 21
594.687285
 31
0.0
  0
LINE
  5
3C0
100
AcDbEntity
  8
2
  6
CONTINUOUS
 62
     7
100
AcDbLine
 10
2766.129709
 20
600.187285
 30
0.0
 11
2766.129709
 21
594.687285
 31
0.0
  0
LINE
  5
3C1
100
AcDbEntity
  8
2
  6
CONTINUOUS
 62
     7
100
AcDbLine
 10
2758.129709
 20
605.187285
 30
0.0
 11
2758.129709
 21
600.687285
 31
0.0
  0
LINE
  5
3C2
100
AcDbEntity
  8
2
  6
CONTINUOUS
 62
     7
100
AcDbLine
 10
2758.629709
 20
600.187285
 30
0.0
 11
2763.129709
 21
600.187285
 31
0.0
  0
LINE
  5
3C3
100
AcDbEntity
  8
2
  6
CONTINUOUS
 62
     7
100
AcDbLine
 10
2760.629709
 20
605.187285
 30
0.0
 11
2760.629709
 21
600.687285
 31
0.0
  0
LINE
  5
3C4
100
AcDbEntity
  8
2
  6
CONTINUOUS
 62
     7
100
AcDbLine
 10
2758.129709
 20
600.687285
 30
0.0
 11
2758.629709
 21
600.187285
 31
0.0
  0
LINE
  5
3C5
100
AcDbEntity
  8
2
  6
CONTINUOUS
 62
     7
100
AcDbLine
 10
2768.129709
 20
605.187285
 30
0.0
 11
2768.129709
 21
600.687285
 31
0.0
  0
LINE
  5
3C6
100
AcDbEntity
  8
2
  6
CONTINUOUS
 62
     7
100
AcDbLine
 10
2768.129709
 20
600.687285
 30
0.0
 11
2767.629709
 21
600.187285
 31
0.0
  0
LINE
  5
3C7
100
AcDbEntity
  8
2
  6
CONTINUOUS
 62
     7
100
AcDbLine
 10
2767.629709
 20
600.187285
 30
0.0
 11
2763.129709
 21
600.187285
 31
0.0
  0
LINE
  5
3C8
100
AcDbEntity
  8
2
  6
CONTINUOUS
 62
     7
100
AcDbLine
 10
2765.629709
 20
605.187285
 30
0.0
 11
2765.629709
 21
600.687285
 31
0.0
  0
LINE
  5
3C9
100
AcDbEntity
  8
2
  6
CONTINUOUS
 62
     7
100
AcDbLine
 10
2760.129709
 20
594.687285
 30
0.0
 11
2760.629709
 21
594.187285
 31
0.0
  0
LINE
  5
3CA
100
AcDbEntity
  8
2
  6
CONTINUOUS
 62
     7
100
AcDbLine
 10
2765.629709
 20
594.187285
 30
0.0
 11
2766.129709
 21
594.687285
 31
0.0
  0
LINE
  5
3CB
100
AcDbEntity
  8
2
  6
CENTER
 62
     7
100
AcDbLine
 10
2763.129709
 20
638.686485
 30
0.0
 11
2763.129709
 21
583.466485
 31
0.0
  0
LINE
  5
3CC
100
AcDbEntity
  8
2
  6
CONTINUOUS
 62
     7
100
AcDbLine
 10
1932.629709
 20
610.187285
 30
0.0
 11
1932.629709
 21
460.187285
 31
0.0
  0
LINE
  5
3CD
100
AcDbEntity
  8
2
  6
CONTINUOUS
 62
     7
100
AcDbLine
 10
1964.629709
 20
610.187285
 30
0.0
 11
1964.629709
 21
460.187285
 31
0.0
  0
LINE
  5
3CE
100
AcDbEntity
  8
2
  6
CONTINUOUS
 62
     7
100
AcDbLine
 10
1932.629709
 20
460.187285
 30
0.0
 11
1964.629709
 21
460.187285
 31
0.0
  0
LINE
  5
3CF
100
AcDbEntity
  8
2
  6
CONTINUOUS
 62
     7
100
AcDbLine
 10
1932.629709
 20
607.187285
 30
0.0
 11
1964.629709
 21
607.187285
 31
0.0
  0
LINE
  5
3D0
100
AcDbEntity
  8
2
  6
CONTINUOUS
 62
     7
100
AcDbLine
 10
1934.629709
 20
605.187285
 30
0.0
 11
1934.629709
 21
504.005685
 31
0.0
  0
LINE
  5
3D1
100
AcDbEntity
  8
2
  6
CONTINUOUS
 62
     7
100
AcDbLine
 10
1934.629709
 20
504.004885
 30
0.0
 11
1943.629709
 21
512.187285
 31
0.0
  0
LINE
  5
3D2
100
AcDbEntity
  8
2
  6
CONTINUOUS
 62
     7
100
AcDbLine
 10
1934.629709
 20
520.368885
 30
0.0
 11
1943.629709
 21
512.187285
 31
0.0
  0
LINE
  5
3D3
100
AcDbEntity
  8
2
  6
CONTINUOUS
 62
     7
100
AcDbLine
 10
1932.629709
 20
504.005685
 30
0.0
 11
1934.629709
 21
504.005685
 31
0.0
  0
LINE
  5
3D4
100
AcDbEntity
  8
2
  6
CONTINUOUS
 62
     7
100
AcDbLine
 10
1934.629709
 20
605.187285
 30
0.0
 11
1960.879309
 21
605.187285
 31
0.0
  0
LINE
  5
3D5
100
AcDbEntity
  8
2
  6
CONTINUOUS
 62
     7
100
AcDbLine
 10
1934.629709
 20
605.187285
 30
0.0
 11
1932.629709
 21
607.187285
 31
0.0
  0
LINE
  5
3D6
100
AcDbEntity
  8
2
  6
CONTINUOUS
 62
     7
100
AcDbLine
 10
1950.629709
 20
594.187285
 30
0.0
 11
1955.629709
 21
594.187285
 31
0.0
  0
LINE
  5
3D7
100
AcDbEntity
  8
2
  6
CONTINUOUS
 62
     7
100
AcDbLine
 10
1960.879309
 20
607.187285
 30
0.0
 11
1960.879309
 21
605.187285
 31
0.0
  0
LINE
  5
3D8
100
AcDbEntity
  8
2
  6
CONTINUOUS
 62
     7
100
AcDbLine
 10
1945.379309
 20
607.187285
 30
0.0
 11
1945.379309
 21
605.187285
 31
0.0
  0
LINE
  5
3D9
100
AcDbEntity
  8
2
  6
CONTINUOUS
 62
     7
100
AcDbLine
 10
1950.129709
 20
600.187285
 30
0.0
 11
1950.129709
 21
594.687285
 31
0.0
  0
LINE
  5
3DA
100
AcDbEntity
  8
2
  6
CONTINUOUS
 62
     7
100
AcDbLine
 10
1956.129709
 20
600.187285
 30
0.0
 11
1956.129709
 21
594.687285
 31
0.0
  0
LINE
  5
3DB
100
AcDbEntity
  8
2
  6
CONTINUOUS
 62
     7
100
AcDbLine
 10
1948.129709
 20
605.187285
 30
0.0
 11
1948.129709
 21
600.687285
 31
0.0
  0
LINE
  5
3DC
100
AcDbEntity
  8
2
  6
CONTINUOUS
 62
     7
100
AcDbLine
 10
1948.629709
 20
600.187285
 30
0.0
 11
1953.129709
 21
600.187285
 31
0.0
  0
LINE
  5
3DD
100
AcDbEntity
  8
2
  6
CONTINUOUS
 62
     7
100
AcDbLine
 10
1950.629709
 20
605.187285
 30
0.0
 11
1950.629709
 21
600.687285
 31
0.0
  0
LINE
  5
3DE
100
AcDbEntity
  8
2
  6
CONTINUOUS
 62
     7
100
AcDbLine
 10
1948.129709
 20
600.687285
 30
0.0
 11
1948.629709
 21
600.187285
 31
0.0
  0
LINE
  5
3DF
100
AcDbEntity
  8
2
  6
CONTINUOUS
 62
     7
100
AcDbLine
 10
1958.129709
 20
605.187285
 30
0.0
 11
1958.129709
 21
600.687285
 31
0.0
  0
LINE
  5
3E0
100
AcDbEntity
  8
2
  6
CONTINUOUS
 62
     7
100
AcDbLine
 10
1958.129709
 20
600.687285
 30
0.0
 11
1957.629709
 21
600.187285
 31
0.0
  0
LINE
  5
3E1
100
AcDbEntity
  8
2
  6
CONTINUOUS
 62
     7
100
AcDbLine
 10
1957.629709
 20
600.187285
 30
0.0
 11
1953.129709
 21
600.187285
 31
0.0
  0
LINE
  5
3E2
100
AcDbEntity
  8
2
  6
CONTINUOUS
 62
     7
100
AcDbLine
 10
1955.629709
 20
605.187285
 30
0.0
 11
1955.629709
 21
600.687285
 31
0.0
  0
LINE
  5
3E3
100
AcDbEntity
  8
2
  6
CONTINUOUS
 62
     7
100
AcDbLine
 10
1950.129709
 20
594.687285
 30
0.0
 11
1950.629709
 21
594.187285
 31
0.0
  0
LINE
  5
3E4
100
AcDbEntity
  8
2
  6
CONTINUOUS
 62
     7
100
AcDbLine
 10
1955.629709
 20
594.187285
 30
0.0
 11
1956.129709
 21
594.687285
 31
0.0
  0
LINE
  5
3E5
100
AcDbEntity
  8
2
  6
CENTER
 62
     7
100
AcDbLine
 10
1953.129709
 20
638.686485
 30
0.0
 11
1953.129709
 21
583.466485
 31
0.0
  0
LINE
  5
3E6
100
AcDbEntity
  8
2
  6
CONTINUOUS
 62
     7
100
AcDbLine
 10
270.490509
 20
904.652885
 30
0.0
 11
270.490509
 21
900.652885
 31
0.0
  0
LINE
  5
3E7
100
AcDbEntity
  8
2
  6
HIDDEN
 62
     7
100
AcDbLine
 10
270.490509
 20
909.652885
 30
0.0
 11
270.490509
 21
904.652885
 31
0.0
  0
LINE
  5
3E8
100
AcDbEntity
  8
2
  6
CONTINUOUS
 62
     7
100
AcDbLine
 10
270.490509
 20
911.652885
 30
0.0
 11
270.490509
 21
909.652885
 31
0.0
  0
LINE
  5
3E9
100
AcDbEntity
  8
2
  6
CONTINUOUS
 62
     7
100
AcDbLine
 10
277.490509
 20
918.652885
 30
0.0
 11
279.490509
 21
918.652885
 31
0.0
  0
LINE
  5
3EA
100
AcDbEntity
  8
2
  6
CONTINUOUS
 62
     7
100
AcDbLine
 10
279.490509
 20
922.152885
 30
0.0
 11
279.490509
 21
918.652885
 31
0.0
  0
LINE
  5
3EB
100
AcDbEntity
  8
2
  6
CONTINUOUS
 62
     7
100
AcDbLine
 10
279.490509
 20
922.152885
 30
0.0
 11
284.490509
 21
922.152885
 31
0.0
  0
LINE
  5
3EC
100
AcDbEntity
  8
2
  6
HIDDEN
 62
     7
100
AcDbLine
 10
279.490509
 20
918.652885
 30
0.0
 11
284.490509
 21
918.652885
 31
0.0
  0
LINE
  5
3ED
100
AcDbEntity
  8
2
  6
CONTINUOUS
 62
     7
100
AcDbLine
 10
284.490509
 20
922.152885
 30
0.0
 11
284.490509
 21
900.652885
 31
0.0
  0
LINE
  5
3EE
100
AcDbEntity
  8
2
  6
CONTINUOUS
 62
     7
100
AcDbLine
 10
670.490509
 20
904.652885
 30
0.0
 11
670.490509
 21
900.652885
 31
0.0
  0
LINE
  5
3EF
100
AcDbEntity
  8
2
  6
HIDDEN
 62
     7
100
AcDbLine
 10
670.490509
 20
909.652885
 30
0.0
 11
670.490509
 21
904.652885
 31
0.0
  0
LINE
  5
3F0
100
AcDbEntity
  8
2
  6
CONTINUOUS
 62
     7
100
AcDbLine
 10
670.490509
 20
911.652885
 30
0.0
 11
670.490509
 21
909.652885
 31
0.0
  0
LINE
  5
3F1
100
AcDbEntity
  8
2
  6
CONTINUOUS
 62
     7
100
AcDbLine
 10
677.490509
 20
918.652885
 30
0.0
 11
679.490509
 21
918.652885
 31
0.0
  0
LINE
  5
3F2
100
AcDbEntity
  8
2
  6
CONTINUOUS
 62
     7
100
AcDbLine
 10
679.490509
 20
922.152885
 30
0.0
 11
679.490509
 21
918.652885
 31
0.0
  0
LINE
  5
3F3
100
AcDbEntity
  8
2
  6
CONTINUOUS
 62
     7
100
AcDbLine
 10
679.490509
 20
922.152885
 30
0.0
 11
684.490509
 21
922.152885
 31
0.0
  0
LINE
  5
3F4
100
AcDbEntity
  8
2
  6
HIDDEN
 62
     7
100
AcDbLine
 10
679.490509
 20
918.652885
 30
0.0
 11
684.490509
 21
918.652885
 31
0.0
  0
LINE
  5
3F5
100
AcDbEntity
  8
2
  6
CONTINUOUS
 62
     7
100
AcDbLine
 10
684.490509
 20
922.152885
 30
0.0
 11
684.490509
 21
900.652885
 31
0.0
  0
LINE
  5
3F6
100
AcDbEntity
  8
2
  6
CONTINUOUS
 62
     7
100
AcDbLine
 10
1070.490509
 20
904.652885
 30
0.0
 11
1070.490509
 21
900.652885
 31
0.0
  0
LINE
  5
3F7
100
AcDbEntity
  8
2
  6
HIDDEN
 62
     7
100
AcDbLine
 10
1070.490509
 20
909.652885
 30
0.0
 11
1070.490509
 21
904.652885
 31
0.0
  0
LINE
  5
3F8
100
AcDbEntity
  8
2
  6
CONTINUOUS
 62
     7
100
AcDbLine
 10
1070.490509
 20
911.652885
 30
0.0
 11
1070.490509
 21
909.652885
 31
0.0
  0
LINE
  5
3F9
100
AcDbEntity
  8
2
  6
CONTINUOUS
 62
     7
100
AcDbLine
 10
1077.490509
 20
918.652885
 30
0.0
 11
1079.490509
 21
918.652885
 31
0.0
  0
LINE
  5
3FA
100
AcDbEntity
  8
2
  6
CONTINUOUS
 62
     7
100
AcDbLine
 10
1079.490509
 20
922.152885
 30
0.0
 11
1079.490509
 21
918.652885
 31
0.0
  0
LINE
  5
3FB
100
AcDbEntity
  8
2
  6
CONTINUOUS
 62
     7
100
AcDbLine
 10
1079.490509
 20
922.152885
 30
0.0
 11
1084.490509
 21
922.152885
 31
0.0
  0
LINE
  5
3FC
100
AcDbEntity
  8
2
  6
HIDDEN
 62
     7
100
AcDbLine
 10
1079.490509
 20
918.652885
 30
0.0
 11
1084.490509
 21
918.652885
 31
0.0
  0
LINE
  5
3FD
100
AcDbEntity
  8
2
  6
CONTINUOUS
 62
     7
100
AcDbLine
 10
1084.490509
 20
922.152885
 30
0.0
 11
1084.490509
 21
900.652885
 31
0.0
  0
LINE
  5
3FE
100
AcDbEntity
  8
2
  6
CONTINUOUS
 62
     7
100
AcDbLine
 10
1470.490509
 20
904.652885
 30
0.0
 11
1470.490509
 21
900.652885
 31
0.0
  0
LINE
  5
3FF
100
AcDbEntity
  8
2
  6
HIDDEN
 62
     7
100
AcDbLine
 10
1470.490509
 20
909.652885
 30
0.0
 11
1470.490509
 21
904.652885
 31
0.0
  0
LINE
  5
400
100
AcDbEntity
  8
2
  6
CONTINUOUS
 62
     7
100
AcDbLine
 10
1470.490509
 20
911.652885
 30
0.0
 11
1470.490509
 21
909.652885
 31
0.0
  0
LINE
  5
401
100
AcDbEntity
  8
2
  6
CONTINUOUS
 62
     7
100
AcDbLine
 10
1477.490509
 20
918.652885
 30
0.0
 11
1479.490509
 21
918.652885
 31
0.0
  0
LINE
  5
402
100
AcDbEntity
  8
2
  6
CONTINUOUS
 62
     7
100
AcDbLine
 10
1479.490509
 20
922.152885
 30
0.0
 11
1479.490509
 21
918.652885
 31
0.0
  0
LINE
  5
403
100
AcDbEntity
  8
2
  6
CONTINUOUS
 62
     7
100
AcDbLine
 10
1479.490509
 20
922.152885
 30
0.0
 11
1484.490509
 21
922.152885
 31
0.0
  0
LINE
  5
404
100
AcDbEntity
  8
2
  6
HIDDEN
 62
     7
100
AcDbLine
 10
1479.490509
 20
918.652885
 30
0.0
 11
1484.490509
 21
918.652885
 31
0.0
  0
LINE
  5
405
100
AcDbEntity
  8
2
  6
CONTINUOUS
 62
     7
100
AcDbLine
 10
1484.490509
 20
922.152885
 30
0.0
 11
1484.490509
 21
900.652885
 31
0.0
  0
LINE
  5
406
100
AcDbEntity
  8
2
  6
CONTINUOUS
 62
     7
100
AcDbLine
 10
1870.490509
 20
904.652885
 30
0.0
 11
1870.490509
 21
900.652885
 31
0.0
  0
LINE
  5
407
100
AcDbEntity
  8
2
  6
HIDDEN
 62
     7
100
AcDbLine
 10
1870.490509
 20
909.652885
 30
0.0
 11
1870.490509
 21
904.652885
 31
0.0
  0
LINE
  5
408
100
AcDbEntity
  8
2
  6
CONTINUOUS
 62
     7
100
AcDbLine
 10
1870.490509
 20
911.652885
 30
0.0
 11
1870.490509
 21
909.652885
 31
0.0
  0
LINE
  5
409
100
AcDbEntity
  8
2
  6
CONTINUOUS
 62
     7
100
AcDbLine
 10
1877.490509
 20
918.652885
 30
0.0
 11
1879.490509
 21
918.652885
 31
0.0
  0
LINE
  5
40A
100
AcDbEntity
  8
2
  6
CONTINUOUS
 62
     7
100
AcDbLine
 10
1879.490509
 20
922.152885
 30
0.0
 11
1879.490509
 21
918.652885
 31
0.0
  0
LINE
  5
40B
100
AcDbEntity
  8
2
  6
CONTINUOUS
 62
     7
100
AcDbLine
 10
1879.490509
 20
922.152885
 30
0.0
 11
1884.490509
 21
922.152885
 31
0.0
  0
LINE
  5
40C
100
AcDbEntity
  8
2
  6
HIDDEN
 62
     7
100
AcDbLine
 10
1879.490509
 20
918.652885
 30
0.0
 11
1884.490509
 21
918.652885
 31
0.0
  0
LINE
  5
40D
100
AcDbEntity
  8
2
  6
CONTINUOUS
 62
     7
100
AcDbLine
 10
1884.490509
 20
922.152885
 30
0.0
 11
1884.490509
 21
900.652885
 31
0.0
  0
LINE
  5
40E
100
AcDbEntity
  8
2
  6
CONTINUOUS
 62
     7
100
AcDbLine
 10
1868.490509
 20
954.652885
 30
0.0
 11
1486.490509
 21
954.652885
 31
0.0
  0
LINE
  5
40F
100
AcDbEntity
  8
2
  6
CONTINUOUS
 62
     7
100
AcDbLine
 10
1468.490509
 20
954.652885
 30
0.0
 11
1086.490509
 21
954.652885
 31
0.0
  0
LINE
  5
410
100
AcDbEntity
  8
2
  6
CONTINUOUS
 62
     7
100
AcDbLine
 10
1068.490509
 20
954.652885
 30
0.0
 11
686.490509
 21
954.652885
 31
0.0
  0
LINE
  5
411
100
AcDbEntity
  8
2
  6
CONTINUOUS
 62
     7
100
AcDbLine
 10
668.490509
 20
954.652885
 30
0.0
 11
286.490509
 21
954.652885
 31
0.0
  0
LINE
  5
412
100
AcDbEntity
  8
2
  6
CONTINUOUS
 62
     7
100
AcDbLine
 10
268.490509
 20
954.652885
 30
0.0
 11
102.490509
 21
954.652885
 31
0.0
  0
LINE
  5
413
100
AcDbEntity
  8
2
  6
CONTINUOUS
 62
     7
100
AcDbLine
 10
956.990509
 20
954.652885
 30
0.0
 11
956.990509
 21
804.652885
 31
0.0
  0
LINE
  5
414
100
AcDbEntity
  8
2
  6
CONTINUOUS
 62
     7
100
AcDbLine
 10
988.990509
 20
954.652885
 30
0.0
 11
988.990509
 21
804.652885
 31
0.0
  0
LINE
  5
415
100
AcDbEntity
  8
2
  6
CONTINUOUS
 62
     7
100
AcDbLine
 10
956.990509
 20
804.652885
 30
0.0
 11
988.990509
 21
804.652885
 31
0.0
  0
LINE
  5
416
100
AcDbEntity
  8
2
  6
CONTINUOUS
 62
     7
100
AcDbLine
 10
956.990509
 20
951.652885
 30
0.0
 11
988.990509
 21
951.652885
 31
0.0
  0
LINE
  5
417
100
AcDbEntity
  8
2
  6
CONTINUOUS
 62
     7
100
AcDbLine
 10
958.990509
 20
949.652885
 30
0.0
 11
958.990509
 21
848.471285
 31
0.0
  0
LINE
  5
418
100
AcDbEntity
  8
2
  6
CONTINUOUS
 62
     7
100
AcDbLine
 10
958.990509
 20
848.471285
 30
0.0
 11
967.990509
 21
856.652885
 31
0.0
  0
LINE
  5
419
100
AcDbEntity
  8
2
  6
CONTINUOUS
 62
     7
100
AcDbLine
 10
958.990509
 20
864.834485
 30
0.0
 11
967.990509
 21
856.652885
 31
0.0
  0
LINE
  5
41A
100
AcDbEntity
  8
2
  6
CONTINUOUS
 62
     7
100
AcDbLine
 10
956.990509
 20
848.471285
 30
0.0
 11
958.990509
 21
848.471285
 31
0.0
  0
LINE
  5
41B
100
AcDbEntity
  8
2
  6
CONTINUOUS
 62
     7
100
AcDbLine
 10
958.990509
 20
949.652885
 30
0.0
 11
985.240109
 21
949.652885
 31
0.0
  0
LINE
  5
41C
100
AcDbEntity
  8
2
  6
CONTINUOUS
 62
     7
100
AcDbLine
 10
958.990509
 20
949.652885
 30
0.0
 11
956.990509
 21
951.652885
 31
0.0
  0
LINE
  5
41D
100
AcDbEntity
  8
2
  6
CONTINUOUS
 62
     7
100
AcDbLine
 10
974.990509
 20
938.652885
 30
0.0
 11
979.990509
 21
938.652885
 31
0.0
  0
LINE
  5
41E
100
AcDbEntity
  8
2
  6
CONTINUOUS
 62
     7
100
AcDbLine
 10
985.240109
 20
951.652885
 30
0.0
 11
985.240109
 21
949.652885
 31
0.0
  0
LINE
  5
41F
100
AcDbEntity
  8
2
  6
CONTINUOUS
 62
     7
100
AcDbLine
 10
969.740109
 20
951.652885
 30
0.0
 11
969.740109
 21
949.652885
 31
0.0
  0
LINE
  5
420
100
AcDbEntity
  8
2
  6
CONTINUOUS
 62
     7
100
AcDbLine
 10
974.490509
 20
944.652885
 30
0.0
 11
974.490509
 21
939.152885
 31
0.0
  0
LINE
  5
421
100
AcDbEntity
  8
2
  6
CONTINUOUS
 62
     7
100
AcDbLine
 10
980.490509
 20
944.652885
 30
0.0
 11
980.490509
 21
939.152885
 31
0.0
  0
LINE
  5
422
100
AcDbEntity
  8
2
  6
CONTINUOUS
 62
     7
100
AcDbLine
 10
972.490509
 20
949.652885
 30
0.0
 11
972.490509
 21
945.152885
 31
0.0
  0
LINE
  5
423
100
AcDbEntity
  8
2
  6
CONTINUOUS
 62
     7
100
AcDbLine
 10
972.990509
 20
944.652885
 30
0.0
 11
977.490509
 21
944.652885
 31
0.0
  0
LINE
  5
424
100
AcDbEntity
  8
2
  6
CONTINUOUS
 62
     7
100
AcDbLine
 10
974.990509
 20
949.652885
 30
0.0
 11
974.990509
 21
945.152885
 31
0.0
  0
LINE
  5
425
100
AcDbEntity
  8
2
  6
CONTINUOUS
 62
     7
100
AcDbLine
 10
972.490509
 20
945.152885
 30
0.0
 11
972.990509
 21
944.652885
 31
0.0
  0
LINE
  5
426
100
AcDbEntity
  8
2
  6
CONTINUOUS
 62
     7
100
AcDbLine
 10
982.490509
 20
949.652885
 30
0.0
 11
982.490509
 21
945.152885
 31
0.0
  0
LINE
  5
427
100
AcDbEntity
  8
2
  6
CONTINUOUS
 62
     7
100
AcDbLine
 10
982.490509
 20
945.152885
 30
0.0
 11
981.990509
 21
944.652885
 31
0.0
  0
LINE
  5
428
100
AcDbEntity
  8
2
  6
CONTINUOUS
 62
     7
100
AcDbLine
 10
981.990509
 20
944.652885
 30
0.0
 11
977.490509
 21
944.652885
 31
0.0
  0
LINE
  5
429
100
AcDbEntity
  8
2
  6
CONTINUOUS
 62
     7
100
AcDbLine
 10
979.990509
 20
949.652885
 30
0.0
 11
979.990509
 21
945.152885
 31
0.0
  0
LINE
  5
42A
100
AcDbEntity
  8
2
  6
CONTINUOUS
 62
     7
100
AcDbLine
 10
974.490509
 20
939.152885
 30
0.0
 11
974.990509
 21
938.652885
 31
0.0
  0
LINE
  5
42B
100
AcDbEntity
  8
2
  6
CONTINUOUS
 62
     7
100
AcDbLine
 10
979.990509
 20
938.652885
 30
0.0
 11
980.490509
 21
939.152885
 31
0.0
  0
LINE
  5
42C
100
AcDbEntity
  8
2
  6
CENTER
 62
     7
100
AcDbLine
 10
977.490509
 20
983.152085
 30
0.0
 11
977.490509
 21
927.932085
 31
0.0
  0
LINE
  5
42D
100
AcDbEntity
  8
2
  6
CONTINUOUS
 62
     7
100
AcDbLine
 10
1072.129709
 20
610.187285
 30
0.0
 11
1454.129709
 21
610.187285
 31
0.0
  0
LINE
  5
42E
100
AcDbEntity
  8
2
  6
CONTINUOUS
 62
     7
100
AcDbLine
 10
1472.129709
 20
610.187285
 30
0.0
 11
1854.129709
 21
610.187285
 31
0.0
  0
LINE
  5
42F
100
AcDbEntity
  8
2
  6
CONTINUOUS
 62
     7
100
AcDbLine
 10
1872.129709
 20
610.187285
 30
0.0
 11
2254.129709
 21
610.187285
 31
0.0
  0
LINE
  5
430
100
AcDbEntity
  8
2
  6
CONTINUOUS
 62
     7
100
AcDbLine
 10
2272.129709
 20
610.187285
 30
0.0
 11
2654.129709
 21
610.187285
 31
0.0
  0
LINE
  5
431
100
AcDbEntity
  8
2
  6
CONTINUOUS
 62
     7
100
AcDbLine
 10
2672.129709
 20
610.187285
 30
0.0
 11
2838.129709
 21
610.187285
 31
0.0
  0
LINE
  5
432
100
AcDbEntity
  8
2
  6
CONTINUOUS
 62
     7
100
AcDbLine
 10
172.990509
 20
917.235285
 30
0.0
 11
165.990509
 21
913.194485
 31
0.0
  0
LINE
  5
433
100
AcDbEntity
  8
2
  6
CONTINUOUS
 62
     7
100
AcDbLine
 10
172.990509
 20
901.069685
 30
0.0
 11
165.990509
 21
905.111285
 31
0.0
  0
LINE
  5
434
100
AcDbEntity
  8
2
  6
CONTINUOUS
 62
     7
100
AcDbLine
 10
179.990509
 20
905.111285
 30
0.0
 11
172.990509
 21
901.069685
 31
0.0
  0
LINE
  5
435
100
AcDbEntity
  8
2
  6
CONTINUOUS
 62
     7
100
AcDbLine
 10
165.990509
 20
913.194485
 30
0.0
 11
165.990509
 21
905.111285
 31
0.0
  0
LINE
  5
436
100
AcDbEntity
  8
2
  6
CENTER
 62
     7
100
AcDbLine
 10
172.990509
 20
923.164885
 30
0.0
 11
172.990509
 21
894.388085
 31
0.0
  0
LINE
  5
437
100
AcDbEntity
  8
2
  6
CENTER
 62
     7
100
AcDbLine
 10
156.728109
 20
909.152885
 30
0.0
 11
186.496909
 21
909.152885
 31
0.0
  0
LINE
  5
438
100
AcDbEntity
  8
2
  6
CONTINUOUS
 62
     7
100
AcDbLine
 10
170.490509
 20
818.440885
 30
0.0
 11
170.490509
 21
817.152885
 31
0.0
  0
LINE
  5
439
100
AcDbEntity
  8
2
  6
CONTINUOUS
 62
     7
100
AcDbLine
 10
175.490509
 20
921.152885
 30
0.0
 11
175.490509
 21
919.864885
 31
0.0
  0
LINE
  5
43A
100
AcDbEntity
  8
2
  6
CONTINUOUS
 62
     7
100
AcDbLine
 10
172.990509
 20
821.069685
 30
0.0
 11
165.990509
 21
825.111285
 31
0.0
  0
LINE
  5
43B
100
AcDbEntity
  8
2
  6
CONTINUOUS
 62
     7
100
AcDbLine
 10
165.990509
 20
833.194485
 30
0.0
 11
165.990509
 21
825.111285
 31
0.0
  0
LINE
  5
43C
100
AcDbEntity
  8
2
  6
CENTER
 62
     7
100
AcDbLine
 10
172.990509
 20
843.164885
 30
0.0
 11
172.990509
 21
814.388085
 31
0.0
  0
LINE
  5
43D
100
AcDbEntity
  8
2
  6
CENTER
 62
     7
100
AcDbLine
 10
156.728109
 20
829.152885
 30
0.0
 11
186.496909
 21
829.152885
 31
0.0
  0
LINE
  5
43E
100
AcDbEntity
  8
2
  6
CONTINUOUS
 62
     7
100
AcDbLine
 10
172.990509
 20
837.236085
 30
0.0
 11
165.990509
 21
833.194485
 31
0.0
  0
LINE
  5
43F
100
AcDbEntity
  8
2
  6
CONTINUOUS
 62
     7
100
AcDbLine
 10
170.490509
 20
921.152885
 30
0.0
 11
170.490509
 21
919.864885
 31
0.0
  0
LINE
  5
440
100
AcDbEntity
  8
2
  6
CONTINUOUS
 62
     7
100
AcDbLine
 10
175.490509
 20
818.440885
 30
0.0
 11
175.490509
 21
817.152885
 31
0.0
  0
LINE
  5
441
100
AcDbEntity
  8
2
  6
CONTINUOUS
 62
     7
100
AcDbLine
 10
179.990509
 20
913.194485
 30
0.0
 11
179.990509
 21
905.111285
 31
0.0
  0
LINE
  5
442
100
AcDbEntity
  8
2
  6
CONTINUOUS
 62
     7
100
AcDbLine
 10
172.990509
 20
917.235285
 30
0.0
 11
179.990509
 21
913.194485
 31
0.0
  0
LINE
  5
443
100
AcDbEntity
  8
2
  6
CONTINUOUS
 62
     7
100
AcDbLine
 10
179.990509
 20
825.111285
 30
0.0
 11
172.990509
 21
821.069685
 31
0.0
  0
LINE
  5
444
100
AcDbEntity
  8
2
  6
CONTINUOUS
 62
     7
100
AcDbLine
 10
172.990509
 20
837.236085
 30
0.0
 11
179.990509
 21
833.194485
 31
0.0
  0
LINE
  5
445
100
AcDbEntity
  8
2
  6
CONTINUOUS
 62
     7
100
AcDbLine
 10
179.990509
 20
833.194485
 30
0.0
 11
179.990509
 21
825.111285
 31
0.0
  0
LINE
  5
446
100
AcDbEntity
  8
2
  6
CONTINUOUS
 62
     7
100
AcDbLine
 10
972.990509
 20
917.235285
 30
0.0
 11
965.990509
 21
913.194485
 31
0.0
  0
LINE
  5
447
100
AcDbEntity
  8
2
  6
CONTINUOUS
 62
     7
100
AcDbLine
 10
972.990509
 20
901.069685
 30
0.0
 11
965.990509
 21
905.111285
 31
0.0
  0
LINE
  5
448
100
AcDbEntity
  8
2
  6
CONTINUOUS
 62
     7
100
AcDbLine
 10
979.990509
 20
905.111285
 30
0.0
 11
972.990509
 21
901.069685
 31
0.0
  0
LINE
  5
449
100
AcDbEntity
  8
2
  6
CONTINUOUS
 62
     7
100
AcDbLine
 10
965.990509
 20
913.194485
 30
0.0
 11
965.990509
 21
905.111285
 31
0.0
  0
LINE
  5
44A
100
AcDbEntity
  8
2
  6
CENTER
 62
     7
100
AcDbLine
 10
972.990509
 20
923.164885
 30
0.0
 11
972.990509
 21
894.388085
 31
0.0
  0
LINE
  5
44B
100
AcDbEntity
  8
2
  6
CENTER
 62
     7
100
AcDbLine
 10
956.728109
 20
909.152885
 30
0.0
 11
986.496909
 21
909.152885
 31
0.0
  0
LINE
  5
44C
100
AcDbEntity
  8
2
  6
CONTINUOUS
 62
     7
100
AcDbLine
 10
970.490509
 20
818.440885
 30
0.0
 11
970.490509
 21
817.152885
 31
0.0
  0
LINE
  5
44D
100
AcDbEntity
  8
2
  6
CONTINUOUS
 62
     7
100
AcDbLine
 10
975.490509
 20
921.152885
 30
0.0
 11
975.490509
 21
919.864885
 31
0.0
  0
LINE
  5
44E
100
AcDbEntity
  8
2
  6
CONTINUOUS
 62
     7
100
AcDbLine
 10
972.990509
 20
821.069685
 30
0.0
 11
965.990509
 21
825.111285
 31
0.0
  0
LINE
  5
44F
100
AcDbEntity
  8
2
  6
CONTINUOUS
 62
     7
100
AcDbLine
 10
965.990509
 20
833.194485
 30
0.0
 11
965.990509
 21
825.111285
 31
0.0
  0
LINE
  5
450
100
AcDbEntity
  8
2
  6
CENTER
 62
     7
100
AcDbLine
 10
972.990509
 20
843.164885
 30
0.0
 11
972.990509
 21
814.388085
 31
0.0
  0
LINE
  5
451
100
AcDbEntity
  8
2
  6
CENTER
 62
     7
100
AcDbLine
 10
956.728109
 20
829.152885
 30
0.0
 11
986.496909
 21
829.152885
 31
0.0
  0
LINE
  5
452
100
AcDbEntity
  8
2
  6
CONTINUOUS
 62
     7
100
AcDbLine
 10
972.990509
 20
837.236085
 30
0.0
 11
965.990509
 21
833.194485
 31
0.0
  0
LINE
  5
453
100
AcDbEntity
  8
2
  6
CONTINUOUS
 62
     7
100
AcDbLine
 10
970.490509
 20
921.152885
 30
0.0
 11
970.490509
 21
919.864885
 31
0.0
  0
LINE
  5
454
100
AcDbEntity
  8
2
  6
CONTINUOUS
 62
     7
100
AcDbLine
 10
975.490509
 20
818.440885
 30
0.0
 11
975.490509
 21
817.152885
 31
0.0
  0
LINE
  5
455
100
AcDbEntity
  8
2
  6
CONTINUOUS
 62
     7
100
AcDbLine
 10
979.990509
 20
913.194485
 30
0.0
 11
979.990509
 21
905.111285
 31
0.0
  0
LINE
  5
456
100
AcDbEntity
  8
2
  6
CONTINUOUS
 62
     7
100
AcDbLine
 10
972.990509
 20
917.235285
 30
0.0
 11
979.990509
 21
913.194485
 31
0.0
  0
LINE
  5
457
100
AcDbEntity
  8
2
  6
CONTINUOUS
 62
     7
100
AcDbLine
 10
979.990509
 20
825.111285
 30
0.0
 11
972.990509
 21
821.069685
 31
0.0
  0
LINE
  5
458
100
AcDbEntity
  8
2
  6
CONTINUOUS
 62
     7
100
AcDbLine
 10
972.990509
 20
837.236085
 30
0.0
 11
979.990509
 21
833.194485
 31
0.0
  0
LINE
  5
459
100
AcDbEntity
  8
2
  6
CONTINUOUS
 62
     7
100
AcDbLine
 10
979.990509
 20
833.194485
 30
0.0
 11
979.990509
 21
825.111285
 31
0.0
  0
LINE
  5
45A
100
AcDbEntity
  8
2
  6
CONTINUOUS
 62
     7
100
AcDbLine
 10
1922.990509
 20
917.235285
 30
0.0
 11
1915.990509
 21
913.194485
 31
0.0
  0
LINE
  5
45B
100
AcDbEntity
  8
2
  6
CONTINUOUS
 62
     7
100
AcDbLine
 10
1922.990509
 20
901.069685
 30
0.0
 11
1915.990509
 21
905.111285
 31
0.0
  0
LINE
  5
45C
100
AcDbEntity
  8
2
  6
CONTINUOUS
 62
     7
100
AcDbLine
 10
1929.990509
 20
905.111285
 30
0.0
 11
1922.990509
 21
901.069685
 31
0.0
  0
LINE
  5
45D
100
AcDbEntity
  8
2
  6
CONTINUOUS
 62
     7
100
AcDbLine
 10
1915.990509
 20
913.194485
 30
0.0
 11
1915.990509
 21
905.111285
 31
0.0
  0
LINE
  5
45E
100
AcDbEntity
  8
2
  6
CENTER
 62
     7
100
AcDbLine
 10
1922.990509
 20
923.164885
 30
0.0
 11
1922.990509
 21
894.388085
 31
0.0
  0
LINE
  5
45F
100
AcDbEntity
  8
2
  6
CENTER
 62
     7
100
AcDbLine
 10
1906.728109
 20
909.152885
 30
0.0
 11
1936.496909
 21
909.152885
 31
0.0
  0
LINE
  5
460
100
AcDbEntity
  8
2
  6
CONTINUOUS
 62
     7
100
AcDbLine
 10
1920.490509
 20
818.440885
 30
0.0
 11
1920.490509
 21
817.152885
 31
0.0
  0
LINE
  5
461
100
AcDbEntity
  8
2
  6
CONTINUOUS
 62
     7
100
AcDbLine
 10
1925.490509
 20
921.152885
 30
0.0
 11
1925.490509
 21
919.864885
 31
0.0
  0
LINE
  5
462
100
AcDbEntity
  8
2
  6
CONTINUOUS
 62
     7
100
AcDbLine
 10
1922.990509
 20
821.069685
 30
0.0
 11
1915.990509
 21
825.111285
 31
0.0
  0
LINE
  5
463
100
AcDbEntity
  8
2
  6
CONTINUOUS
 62
     7
100
AcDbLine
 10
1915.990509
 20
833.194485
 30
0.0
 11
1915.990509
 21
825.111285
 31
0.0
  0
LINE
  5
464
100
AcDbEntity
  8
2
  6
CENTER
 62
     7
100
AcDbLine
 10
1922.990509
 20
843.164885
 30
0.0
 11
1922.990509
 21
814.388085
 31
0.0
  0
LINE
  5
465
100
AcDbEntity
  8
2
  6
CENTER
 62
     7
100
AcDbLine
 10
1906.728109
 20
829.152885
 30
0.0
 11
1936.496909
 21
829.152885
 31
0.0
  0
LINE
  5
466
100
AcDbEntity
  8
2
  6
CONTINUOUS
 62
     7
100
AcDbLine
 10
1922.990509
 20
837.236085
 30
0.0
 11
1915.990509
 21
833.194485
 31
0.0
  0
LINE
  5
467
100
AcDbEntity
  8
2
  6
CONTINUOUS
 62
     7
100
AcDbLine
 10
1920.490509
 20
921.152885
 30
0.0
 11
1920.490509
 21
919.864885
 31
0.0
  0
LINE
  5
468
100
AcDbEntity
  8
2
  6
CONTINUOUS
 62
     7
100
AcDbLine
 10
1925.490509
 20
818.440885
 30
0.0
 11
1925.490509
 21
817.152885
 31
0.0
  0
LINE
  5
469
100
AcDbEntity
  8
2
  6
CONTINUOUS
 62
     7
100
AcDbLine
 10
1929.990509
 20
913.194485
 30
0.0
 11
1929.990509
 21
905.111285
 31
0.0
  0
LINE
  5
46A
100
AcDbEntity
  8
2
  6
CONTINUOUS
 62
     7
100
AcDbLine
 10
1922.990509
 20
917.235285
 30
0.0
 11
1929.990509
 21
913.194485
 31
0.0
  0
LINE
  5
46B
100
AcDbEntity
  8
2
  6
CONTINUOUS
 62
     7
100
AcDbLine
 10
1929.990509
 20
825.111285
 30
0.0
 11
1922.990509
 21
821.069685
 31
0.0
  0
LINE
  5
46C
100
AcDbEntity
  8
2
  6
CONTINUOUS
 62
     7
100
AcDbLine
 10
1922.990509
 20
837.236085
 30
0.0
 11
1929.990509
 21
833.194485
 31
0.0
  0
LINE
  5
46D
100
AcDbEntity
  8
2
  6
CONTINUOUS
 62
     7
100
AcDbLine
 10
1929.990509
 20
833.194485
 30
0.0
 11
1929.990509
 21
825.111285
 31
0.0
  0
LINE
  5
46E
100
AcDbEntity
  8
2
  6
CONTINUOUS
 62
     7
100
AcDbLine
 10
1008.629709
 20
572.770485
 30
0.0
 11
1001.629709
 21
568.728885
 31
0.0
  0
LINE
  5
46F
100
AcDbEntity
  8
2
  6
CONTINUOUS
 62
     7
100
AcDbLine
 10
1008.629709
 20
556.604085
 30
0.0
 11
1001.629709
 21
560.645685
 31
0.0
  0
LINE
  5
470
100
AcDbEntity
  8
2
  6
CONTINUOUS
 62
     7
100
AcDbLine
 10
1015.629709
 20
560.645685
 30
0.0
 11
1008.629709
 21
556.604085
 31
0.0
  0
LINE
  5
471
100
AcDbEntity
  8
2
  6
CONTINUOUS
 62
     7
100
AcDbLine
 10
1001.629709
 20
568.728885
 30
0.0
 11
1001.629709
 21
560.645685
 31
0.0
  0
LINE
  5
472
100
AcDbEntity
  8
2
  6
CENTER
 62
     7
100
AcDbLine
 10
1008.629709
 20
578.699285
 30
0.0
 11
1008.629709
 21
549.922485
 31
0.0
  0
LINE
  5
473
100
AcDbEntity
  8
2
  6
CENTER
 62
     7
100
AcDbLine
 10
992.368109
 20
564.687285
 30
0.0
 11
1022.136909
 21
564.687285
 31
0.0
  0
LINE
  5
474
100
AcDbEntity
  8
2
  6
CONTINUOUS
 62
     7
100
AcDbLine
 10
1006.129709
 20
473.975285
 30
0.0
 11
1006.129709
 21
472.687285
 31
0.0
  0
LINE
  5
475
100
AcDbEntity
  8
2
  6
CONTINUOUS
 62
     7
100
AcDbLine
 10
1011.129709
 20
576.687285
 30
0.0
 11
1011.129709
 21
575.399285
 31
0.0
  0
LINE
  5
476
100
AcDbEntity
  8
2
  6
CONTINUOUS
 62
     7
100
AcDbLine
 10
1008.629709
 20
476.604085
 30
0.0
 11
1001.629709
 21
480.645685
 31
0.0
  0
LINE
  5
477
100
AcDbEntity
  8
2
  6
CONTINUOUS
 62
     7
100
AcDbLine
 10
1001.629709
 20
488.728885
 30
0.0
 11
1001.629709
 21
480.645685
 31
0.0
  0
LINE
  5
478
100
AcDbEntity
  8
2
  6
CENTER
 62
     7
100
AcDbLine
 10
1008.629709
 20
498.699285
 30
0.0
 11
1008.629709
 21
469.922485
 31
0.0
  0
LINE
  5
479
100
AcDbEntity
  8
2
  6
CENTER
 62
     7
100
AcDbLine
 10
992.367309
 20
484.687285
 30
0.0
 11
1022.136109
 21
484.687285
 31
0.0
  0
LINE
  5
47A
100
AcDbEntity
  8
2
  6
CONTINUOUS
 62
     7
100
AcDbLine
 10
1008.629709
 20
492.770485
 30
0.0
 11
1001.629709
 21
488.728885
 31
0.0
  0
LINE
  5
47B
100
AcDbEntity
  8
2
  6
CONTINUOUS
 62
     7
100
AcDbLine
 10
1006.129709
 20
576.687285
 30
0.0
 11
1006.129709
 21
575.399285
 31
0.0
  0
LINE
  5
47C
100
AcDbEntity
  8
2
  6
CONTINUOUS
 62
     7
100
AcDbLine
 10
1011.129709
 20
473.975285
 30
0.0
 11
1011.129709
 21
472.687285
 31
0.0
  0
LINE
  5
47D
100
AcDbEntity
  8
2
  6
CONTINUOUS
 62
     7
100
AcDbLine
 10
1015.629709
 20
568.728885
 30
0.0
 11
1015.629709
 21
560.645685
 31
0.0
  0
LINE
  5
47E
100
AcDbEntity
  8
2
  6
CONTINUOUS
 62
     7
100
AcDbLine
 10
1008.629709
 20
572.769685
 30
0.0
 11
1015.629709
 21
568.728885
 31
0.0
  0
LINE
  5
47F
100
AcDbEntity
  8
2
  6
CONTINUOUS
 62
     7
100
AcDbLine
 10
1015.629709
 20
480.645685
 30
0.0
 11
1008.629709
 21
476.604085
 31
0.0
  0
LINE
  5
480
100
AcDbEntity
  8
2
  6
CONTINUOUS
 62
     7
100
AcDbLine
 10
1008.629709
 20
492.770485
 30
0.0
 11
1015.629709
 21
488.728885
 31
0.0
  0
LINE
  5
481
100
AcDbEntity
  8
2
  6
CONTINUOUS
 62
     7
100
AcDbLine
 10
1015.629709
 20
488.728885
 30
0.0
 11
1015.629709
 21
480.645685
 31
0.0
  0
LINE
  5
482
100
AcDbEntity
  8
2
  6
CONTINUOUS
 62
     7
100
AcDbLine
 10
1948.629709
 20
572.770485
 30
0.0
 11
1941.629709
 21
568.728885
 31
0.0
  0
LINE
  5
483
100
AcDbEntity
  8
2
  6
CONTINUOUS
 62
     7
100
AcDbLine
 10
1948.629709
 20
556.604085
 30
0.0
 11
1941.629709
 21
560.645685
 31
0.0
  0
LINE
  5
484
100
AcDbEntity
  8
2
  6
CONTINUOUS
 62
     7
100
AcDbLine
 10
1955.629709
 20
560.645685
 30
0.0
 11
1948.629709
 21
556.604085
 31
0.0
  0
LINE
  5
485
100
AcDbEntity
  8
2
  6
CONTINUOUS
 62
     7
100
AcDbLine
 10
1941.629709
 20
568.728885
 30
0.0
 11
1941.629709
 21
560.645685
 31
0.0
  0
LINE
  5
486
100
AcDbEntity
  8
2
  6
CENTER
 62
     7
100
AcDbLine
 10
1948.629709
 20
578.699285
 30
0.0
 11
1948.629709
 21
549.922485
 31
0.0
  0
LINE
  5
487
100
AcDbEntity
  8
2
  6
CENTER
 62
     7
100
AcDbLine
 10
1932.367309
 20
564.687285
 30
0.0
 11
1962.136109
 21
564.687285
 31
0.0
  0
LINE
  5
488
100
AcDbEntity
  8
2
  6
CONTINUOUS
 62
     7
100
AcDbLine
 10
1946.129709
 20
473.975285
 30
0.0
 11
1946.129709
 21
472.687285
 31
0.0
  0
LINE
  5
489
100
AcDbEntity
  8
2
  6
CONTINUOUS
 62
     7
100
AcDbLine
 10
1951.129709
 20
576.687285
 30
0.0
 11
1951.129709
 21
575.399285
 31
0.0
  0
LINE
  5
48A
100
AcDbEntity
  8
2
  6
CONTINUOUS
 62
     7
100
AcDbLine
 10
1948.629709
 20
476.604085
 30
0.0
 11
1941.629709
 21
480.645685
 31
0.0
  0
LINE
  5
48B
100
AcDbEntity
  8
2
  6
CONTINUOUS
 62
     7
100
AcDbLine
 10
1941.629709
 20
488.728885
 30
0.0
 11
1941.629709
 21
480.645685
 31
0.0
  0
LINE
  5
48C
100
AcDbEntity
  8
2
  6
CENTER
 62
     7
100
AcDbLine
 10
1948.629709
 20
498.699285
 30
0.0
 11
1948.629709
 21
469.922485
 31
0.0
  0
LINE
  5
48D
100
AcDbEntity
  8
2
  6
CENTER
 62
     7
100
AcDbLine
 10
1932.367309
 20
484.687285
 30
0.0
 11
1962.136109
 21
484.687285
 31
0.0
  0
LINE
  5
48E
100
AcDbEntity
  8
2
  6
CONTINUOUS
 62
     7
100
AcDbLine
 10
1948.629709
 20
492.770485
 30
0.0
 11
1941.629709
 21
488.728885
 31
0.0
  0
LINE
  5
48F
100
AcDbEntity
  8
2
  6
CONTINUOUS
 62
     7
100
AcDbLine
 10
1946.129709
 20
576.687285
 30
0.0
 11
1946.129709
 21
575.399285
 31
0.0
  0
LINE
  5
490
100
AcDbEntity
  8
2
  6
CONTINUOUS
 62
     7
100
AcDbLine
 10
1951.129709
 20
473.975285
 30
0.0
 11
1951.129709
 21
472.687285
 31
0.0
  0
LINE
  5
491
100
AcDbEntity
  8
2
  6
CONTINUOUS
 62
     7
100
AcDbLine
 10
1955.629709
 20
568.728885
 30
0.0
 11
1955.629709
 21
560.645685
 31
0.0
  0
LINE
  5
492
100
AcDbEntity
  8
2
  6
CONTINUOUS
 62
     7
100
AcDbLine
 10
1948.629709
 20
572.769685
 30
0.0
 11
1955.629709
 21
568.728885
 31
0.0
  0
LINE
  5
493
100
AcDbEntity
  8
2
  6
CONTINUOUS
 62
     7
100
AcDbLine
 10
1955.629709
 20
480.645685
 30
0.0
 11
1948.629709
 21
476.604085
 31
0.0
  0
LINE
  5
494
100
AcDbEntity
  8
2
  6
CONTINUOUS
 62
     7
100
AcDbLine
 10
1948.629709
 20
492.770485
 30
0.0
 11
1955.629709
 21
488.728885
 31
0.0
  0
LINE
  5
495
100
AcDbEntity
  8
2
  6
CONTINUOUS
 62
     7
100
AcDbLine
 10
1955.629709
 20
488.728885
 30
0.0
 11
1955.629709
 21
480.645685
 31
0.0
  0
LINE
  5
496
100
AcDbEntity
  8
2
  6
CONTINUOUS
 62
     7
100
AcDbLine
 10
2758.629709
 20
572.770485
 30
0.0
 11
2751.629709
 21
568.728885
 31
0.0
  0
LINE
  5
497
100
AcDbEntity
  8
2
  6
CONTINUOUS
 62
     7
100
AcDbLine
 10
2758.629709
 20
556.604085
 30
0.0
 11
2751.629709
 21
560.645685
 31
0.0
  0
LINE
  5
498
100
AcDbEntity
  8
2
  6
CONTINUOUS
 62
     7
100
AcDbLine
 10
2765.629709
 20
560.645685
 30
0.0
 11
2758.629709
 21
556.604085
 31
0.0
  0
LINE
  5
499
100
AcDbEntity
  8
2
  6
CONTINUOUS
 62
     7
100
AcDbLine
 10
2751.629709
 20
568.728885
 30
0.0
 11
2751.629709
 21
560.645685
 31
0.0
  0
LINE
  5
49A
100
AcDbEntity
  8
2
  6
CENTER
 62
     7
100
AcDbLine
 10
2758.629709
 20
578.699285
 30
0.0
 11
2758.629709
 21
549.922485
 31
0.0
  0
LINE
  5
49B
100
AcDbEntity
  8
2
  6
CENTER
 62
     7
100
AcDbLine
 10
2742.367309
 20
564.687285
 30
0.0
 11
2772.136109
 21
564.687285
 31
0.0
  0
LINE
  5
49C
100
AcDbEntity
  8
2
  6
CONTINUOUS
 62
     7
100
AcDbLine
 10
2756.129709
 20
473.975285
 30
0.0
 11
2756.129709
 21
472.687285
 31
0.0
  0
LINE
  5
49D
100
AcDbEntity
  8
2
  6
CONTINUOUS
 62
     7
100
AcDbLine
 10
2761.129709
 20
576.687285
 30
0.0
 11
2761.129709
 21
575.399285
 31
0.0
  0
LINE
  5
49E
100
AcDbEntity
  8
2
  6
CONTINUOUS
 62
     7
100
AcDbLine
 10
2758.629709
 20
476.604085
 30
0.0
 11
2751.629709
 21
480.645685
 31
0.0
  0
LINE
  5
49F
100
AcDbEntity
  8
2
  6
CONTINUOUS
 62
     7
100
AcDbLine
 10
2751.629709
 20
488.728885
 30
0.0
 11
2751.629709
 21
480.645685
 31
0.0
  0
LINE
  5
4A0
100
AcDbEntity
  8
2
  6
CENTER
 62
     7
100
AcDbLine
 10
2758.629709
 20
498.699285
 30
0.0
 11
2758.629709
 21
469.922485
 31
0.0
  0
LINE
  5
4A1
100
AcDbEntity
  8
2
  6
CENTER
 62
     7
100
AcDbLine
 10
2742.367309
 20
484.687285
 30
0.0
 11
2772.136109
 21
484.687285
 31
0.0
  0
LINE
  5
4A2
100
AcDbEntity
  8
2
  6
CONTINUOUS
 62
     7
100
AcDbLine
 10
2758.629709
 20
492.770485
 30
0.0
 11
2751.629709
 21
488.728885
 31
0.0
  0
LINE
  5
4A3
100
AcDbEntity
  8
2
  6
CONTINUOUS
 62
     7
100
AcDbLine
 10
2756.129709
 20
576.687285
 30
0.0
 11
2756.129709
 21
575.399285
 31
0.0
  0
LINE
  5
4A4
100
AcDbEntity
  8
2
  6
CONTINUOUS
 62
     7
100
AcDbLine
 10
2761.129709
 20
473.975285
 30
0.0
 11
2761.129709
 21
472.687285
 31
0.0
  0
LINE
  5
4A5
100
AcDbEntity
  8
2
  6
CONTINUOUS
 62
     7
100
AcDbLine
 10
2765.629709
 20
568.728885
 30
0.0
 11
2765.629709
 21
560.645685
 31
0.0
  0
LINE
  5
4A6
100
AcDbEntity
  8
2
  6
CONTINUOUS
 62
     7
100
AcDbLine
 10
2758.629709
 20
572.769685
 30
0.0
 11
2765.629709
 21
568.728885
 31
0.0
  0
LINE
  5
4A7
100
AcDbEntity
  8
2
  6
CONTINUOUS
 62
     7
100
AcDbLine
 10
2765.629709
 20
480.645685
 30
0.0
 11
2758.629709
 21
476.604085
 31
0.0
  0
LINE
  5
4A8
100
AcDbEntity
  8
2
  6
CONTINUOUS
 62
     7
100
AcDbLine
 10
2758.629709
 20
492.770485
 30
0.0
 11
2765.629709
 21
488.728885
 31
0.0
  0
LINE
  5
4A9
100
AcDbEntity
  8
2
  6
CONTINUOUS
 62
     7
100
AcDbLine
 10
2765.629709
 20
488.728885
 30
0.0
 11
2765.629709
 21
480.645685
 31
0.0
  0
LINE
  5
4AA
100
AcDbEntity
  8
2
  6
CONTINUOUS
 62
     7
100
AcDbLine
 10
2078.990509
 20
1013.002485
 30
0.0
 11
2078.990509
 21
918.002485
 31
0.0
  0
LINE
  5
4AB
100
AcDbEntity
  8
2
  6
CONTINUOUS
 62
     7
100
AcDbLine
 10
2077.490509
 20
1013.002485
 30
0.0
 11
2078.990509
 21
1013.002485
 31
0.0
  0
LINE
  5
4AC
100
AcDbEntity
  8
2
  6
CONTINUOUS
 62
     7
100
AcDbLine
 10
2077.490509
 20
918.002485
 30
0.0
 11
2078.990509
 21
918.002485
 31
0.0
  0
ARC
  5
4AD
100
AcDbEntity
  8
2
  6
CONTINUOUS
 62
     7
100
AcDbCircle
 10
866.129709
 20
666.536885
 30
0.0
 40
2.0
100
AcDbArc
 50
90.0
 51
180.0
  0
ARC
  5
4AE
100
AcDbEntity
  8
2
  6
CONTINUOUS
 62
     7
100
AcDbCircle
 10
866.129709
 20
575.536885
 30
0.0
 40
2.0
100
AcDbArc
 50
180.0
 51
-90.0
  0
ARC
  5
4AF
100
AcDbEntity
  8
2
  6
CONTINUOUS
 62
     7
100
AcDbCircle
 10
875.129709
 20
666.536885
 30
0.0
 40
2.0
100
AcDbArc
 50
0.0
 51
90.0
  0
ARC
  5
4B0
100
AcDbEntity
  8
2
  6
CONTINUOUS
 62
     7
100
AcDbCircle
 10
875.129709
 20
575.536885
 30
0.0
 40
2.0
100
AcDbArc
 50
-90.0
 51
0.0
  0
ARC
  5
4B1
100
AcDbEntity
  8
2
  6
CONTINUOUS
 62
     7
100
AcDbCircle
 10
881.129709
 20
642.887285
 30
0.0
 40
4.0
100
AcDbArc
 50
180.0
 51
-90.0
  0
ARC
  5
4B2
100
AcDbEntity
  8
2
  6
CONTINUOUS
 62
     7
100
AcDbCircle
 10
881.129709
 20
599.187285
 30
0.0
 40
4.0
100
AcDbArc
 50
90.0
 51
180.0
  0
ARC
  5
4B3
100
AcDbEntity
  8
2
  6
CONTINUOUS
 62
     7
100
AcDbCircle
 10
2663.129709
 20
590.936885
 30
0.0
 40
21.2504
100
AcDbArc
 50
64.9424
 51
115.0576
  0
ARC
  5
4B4
100
AcDbEntity
  8
2
  6
CONTINUOUS
 62
     7
100
AcDbCircle
 10
2860.129709
 20
666.536885
 30
0.0
 40
2.0
100
AcDbArc
 50
0.0
 51
90.0
  0
ARC
  5
4B5
100
AcDbEntity
  8
2
  6
CONTINUOUS
 62
     7
100
AcDbCircle
 10
2860.129709
 20
575.536885
 30
0.0
 40
2.0
100
AcDbArc
 50
-90.0
 51
0.0
  0
ARC
  5
4B6
100
AcDbEntity
  8
2
  6
CONTINUOUS
 62
     7
100
AcDbCircle
 10
2851.129709
 20
666.536885
 30
0.0
 40
2.0
100
AcDbArc
 50
90.0
 51
180.0
  0
ARC
  5
4B7
100
AcDbEntity
  8
2
  6
CONTINUOUS
 62
     7
100
AcDbCircle
 10
2851.129709
 20
575.536885
 30
0.0
 40
2.0
100
AcDbArc
 50
180.0
 51
-90.0
  0
ARC
  5
4B8
100
AcDbEntity
  8
2
  6
CONTINUOUS
 62
     7
100
AcDbCircle
 10
2845.129709
 20
642.887285
 30
0.0
 40
4.0
100
AcDbArc
 50
-90.0
 51
0.0
  0
ARC
  5
4B9
100
AcDbEntity
  8
2
  6
CONTINUOUS
 62
     7
100
AcDbCircle
 10
2845.129709
 20
599.187285
 30
0.0
 40
4.0
100
AcDbArc
 50
0.0
 51
90.0
  0
CIRCLE
  5
4BA
100
AcDbEntity
  8
2
  6
CONTINUOUS
 62
     7
100
AcDbCircle
 10
2663.129709
 20
567.187285
 30
0.0
 40
4.0416
  0
ARC
  5
4BB
100
AcDbEntity
  8
2
  6
CONTINUOUS
 62
     7
100
AcDbCircle
 10
2663.129709
 20
567.187285
 30
0.0
 40
7.0
100
AcDbArc
 50
90.0
 51
180.0
  0
CIRCLE
  5
4BC
100
AcDbEntity
  8
2
  6
CONTINUOUS
 62
     7
100
AcDbCircle
 10
2663.129709
 20
567.187285
 30
0.0
 40
2.5
  0
CIRCLE
  5
4BD
100
AcDbEntity
  8
2
  6
CONTINUOUS
 62
     7
100
AcDbCircle
 10
2663.129709
 20
567.187285
 30
0.0
 40
3.5
  0
ARC
  5
4BE
100
AcDbEntity
  8
2
  6
CONTINUOUS
 62
     7
100
AcDbCircle
 10
2657.629709
 20
574.687285
 30
0.0
 40
20.5
100
AcDbArc
 50
77.3196
 51
102.6804
  0
ARC
  5
4BF
100
AcDbEntity
  8
2
  6
CONTINUOUS
 62
     7
100
AcDbCircle
 10
2668.629709
 20
574.687285
 30
0.0
 40
20.5
100
AcDbArc
 50
77.3196
 51
102.6804
  0
CIRCLE
  5
4C0
100
AcDbEntity
  8
2
  6
CONTINUOUS
 62
     7
100
AcDbCircle
 10
2663.129709
 20
567.187285
 30
0.0
 40
2.0
  0
CIRCLE
  5
4C1
100
AcDbEntity
  8
2
  6
CONTINUOUS
 62
     7
100
AcDbCircle
 10
1063.129709
 20
567.187285
 30
0.0
 40
4.0416
  0
ARC
  5
4C2
100
AcDbEntity
  8
2
  6
CONTINUOUS
 62
     7
100
AcDbCircle
 10
1063.129709
 20
567.187285
 30
0.0
 40
7.0
100
AcDbArc
 50
90.0
 51
180.0
  0
CIRCLE
  5
4C3
100
AcDbEntity
  8
2
  6
CONTINUOUS
 62
     7
100
AcDbCircle
 10
1063.129709
 20
567.187285
 30
0.0
 40
2.5
  0
CIRCLE
  5
4C4
100
AcDbEntity
  8
2
  6
CONTINUOUS
 62
     7
100
AcDbCircle
 10
1063.129709
 20
567.187285
 30
0.0
 40
3.5
  0
ARC
  5
4C5
100
AcDbEntity
  8
2
  6
CONTINUOUS
 62
     7
100
AcDbCircle
 10
1057.629709
 20
574.687285
 30
0.0
 40
20.5
100
AcDbArc
 50
77.3196
 51
102.6804
  0
ARC
  5
4C6
100
AcDbEntity
  8
2
  6
CONTINUOUS
 62
     7
100
AcDbCircle
 10
1068.629709
 20
574.687285
 30
0.0
 40
20.5
100
AcDbArc
 50
77.3196
 51
102.6804
  0
CIRCLE
  5
4C7
100
AcDbEntity
  8
2
  6
CONTINUOUS
 62
     7
100
AcDbCircle
 10
1063.129709
 20
567.187285
 30
0.0
 40
2.0
  0
ARC
  5
4C8
100
AcDbEntity
  8
2
  6
CONTINUOUS
 62
     7
100
AcDbCircle
 10
1063.129709
 20
590.936885
 30
0.0
 40
21.2504
100
AcDbArc
 50
64.9424
 51
115.0576
  0
CIRCLE
  5
4C9
100
AcDbEntity
  8
2
  6
CONTINUOUS
 62
     7
100
AcDbCircle
 10
1463.129709
 20
567.187285
 30
0.0
 40
2.0
  0
ARC
  5
4CA
100
AcDbEntity
  8
2
  6
CONTINUOUS
 62
     7
100
AcDbCircle
 10
1463.129709
 20
590.936885
 30
0.0
 40
21.2504
100
AcDbArc
 50
64.9424
 51
115.0576
  0
CIRCLE
  5
4CB
100
AcDbEntity
  8
2
  6
CONTINUOUS
 62
     7
100
AcDbCircle
 10
1463.129709
 20
567.187285
 30
0.0
 40
4.0416
  0
ARC
  5
4CC
100
AcDbEntity
  8
2
  6
CONTINUOUS
 62
     7
100
AcDbCircle
 10
1463.129709
 20
567.187285
 30
0.0
 40
7.0
100
AcDbArc
 50
90.0
 51
180.0
  0
CIRCLE
  5
4CD
100
AcDbEntity
  8
2
  6
CONTINUOUS
 62
     7
100
AcDbCircle
 10
1463.129709
 20
567.187285
 30
0.0
 40
2.5
  0
CIRCLE
  5
4CE
100
AcDbEntity
  8
2
  6
CONTINUOUS
 62
     7
100
AcDbCircle
 10
1463.129709
 20
567.187285
 30
0.0
 40
3.5
  0
ARC
  5
4CF
100
AcDbEntity
  8
2
  6
CONTINUOUS
 62
     7
100
AcDbCircle
 10
1457.629709
 20
574.687285
 30
0.0
 40
20.5
100
AcDbArc
 50
77.3196
 51
102.6804
  0
ARC
  5
4D0
100
AcDbEntity
  8
2
  6
CONTINUOUS
 62
     7
100
AcDbCircle
 10
1468.629709
 20
574.687285
 30
0.0
 40
20.5
100
AcDbArc
 50
77.3196
 51
102.6804
  0
CIRCLE
  5
4D1
100
AcDbEntity
  8
2
  6
CONTINUOUS
 62
     7
100
AcDbCircle
 10
1863.129709
 20
567.187285
 30
0.0
 40
2.0
  0
ARC
  5
4D2
100
AcDbEntity
  8
2
  6
CONTINUOUS
 62
     7
100
AcDbCircle
 10
1863.129709
 20
590.936885
 30
0.0
 40
21.2504
100
AcDbArc
 50
64.9424
 51
115.0576
  0
CIRCLE
  5
4D3
100
AcDbEntity
  8
2
  6
CONTINUOUS
 62
     7
100
AcDbCircle
 10
1863.129709
 20
567.187285
 30
0.0
 40
4.0416
  0
ARC
  5
4D4
100
AcDbEntity
  8
2
  6
CONTINUOUS
 62
     7
100
AcDbCircle
 10
1863.129709
 20
567.187285
 30
0.0
 40
7.0
100
AcDbArc
 50
90.0
 51
180.0
  0
CIRCLE
  5
4D5
100
AcDbEntity
  8
2
  6
CONTINUOUS
 62
     7
100
AcDbCircle
 10
1863.129709
 20
567.187285
 30
0.0
 40
2.5
  0
CIRCLE
  5
4D6
100
AcDbEntity
  8
2
  6
CONTINUOUS
 62
     7
100
AcDbCircle
 10
1863.129709
 20
567.187285
 30
0.0
 40
3.5
  0
ARC
  5
4D7
100
AcDbEntity
  8
2
  6
CONTINUOUS
 62
     7
100
AcDbCircle
 10
1857.629709
 20
574.687285
 30
0.0
 40
20.5
100
AcDbArc
 50
77.3196
 51
102.6804
  0
ARC
  5
4D8
100
AcDbEntity
  8
2
  6
CONTINUOUS
 62
     7
100
AcDbCircle
 10
1868.629709
 20
574.687285
 30
0.0
 40
20.5
100
AcDbArc
 50
77.3196
 51
102.6804
  0
CIRCLE
  5
4D9
100
AcDbEntity
  8
2
  6
CONTINUOUS
 62
     7
100
AcDbCircle
 10
2263.129709
 20
567.187285
 30
0.0
 40
2.0
  0
ARC
  5
4DA
100
AcDbEntity
  8
2
  6
CONTINUOUS
 62
     7
100
AcDbCircle
 10
2268.629709
 20
574.687285
 30
0.0
 40
20.5
100
AcDbArc
 50
77.3196
 51
102.6804
  0
ARC
  5
4DB
100
AcDbEntity
  8
2
  6
CONTINUOUS
 62
     7
100
AcDbCircle
 10
2263.129709
 20
590.936885
 30
0.0
 40
21.2504
100
AcDbArc
 50
64.9424
 51
115.0576
  0
CIRCLE
  5
4DC
100
AcDbEntity
  8
2
  6
CONTINUOUS
 62
     7
100
AcDbCircle
 10
2263.129709
 20
567.187285
 30
0.0
 40
4.0416
  0
ARC
  5
4DD
100
AcDbEntity
  8
2
  6
CONTINUOUS
 62
     7
100
AcDbCircle
 10
2263.129709
 20
567.187285
 30
0.0
 40
7.0
100
AcDbArc
 50
90.0
 51
180.0
  0
CIRCLE
  5
4DE
100
AcDbEntity
  8
2
  6
CONTINUOUS
 62
     7
100
AcDbCircle
 10
2263.129709
 20
567.187285
 30
0.0
 40
2.5
  0
CIRCLE
  5
4DF
100
AcDbEntity
  8
2
  6
CONTINUOUS
 62
     7
100
AcDbCircle
 10
2263.129709
 20
567.187285
 30
0.0
 40
3.5
  0
ARC
  5
4E0
100
AcDbEntity
  8
2
  6
CONTINUOUS
 62
     7
100
AcDbCircle
 10
2257.629709
 20
574.687285
 30
0.0
 40
20.5
100
AcDbArc
 50
77.3196
 51
102.6804
  0
ARC
  5
4E1
100
AcDbEntity
  8
2
  6
CONTINUOUS
 62
     7
100
AcDbCircle
 10
2074.490509
 20
1011.002485
 30
0.0
 40
2.0
100
AcDbArc
 50
0.0
 51
90.0
  0
ARC
  5
4E2
100
AcDbEntity
  8
2
  6
CONTINUOUS
 62
     7
100
AcDbCircle
 10
2074.490509
 20
920.002485
 30
0.0
 40
2.0
100
AcDbArc
 50
-90.0
 51
0.0
  0
ARC
  5
4E3
100
AcDbEntity
  8
2
  6
CONTINUOUS
 62
     7
100
AcDbCircle
 10
2065.490509
 20
1011.002485
 30
0.0
 40
2.0
100
AcDbArc
 50
90.0
 51
180.0
  0
ARC
  5
4E4
100
AcDbEntity
  8
2
  6
CONTINUOUS
 62
     7
100
AcDbCircle
 10
2065.490509
 20
920.002485
 30
0.0
 40
2.0
100
AcDbArc
 50
180.0
 51
-90.0
  0
ARC
  5
4E5
100
AcDbEntity
  8
2
  6
CONTINUOUS
 62
     7
100
AcDbCircle
 10
2059.490509
 20
987.352885
 30
0.0
 40
4.0
100
AcDbArc
 50
-90.0
 51
0.0
  0
ARC
  5
4E6
100
AcDbEntity
  8
2
  6
CONTINUOUS
 62
     7
100
AcDbCircle
 10
2059.490509
 20
943.652885
 30
0.0
 40
4.0
100
AcDbArc
 50
0.0
 51
90.0
  0
ARC
  5
4E7
100
AcDbEntity
  8
2
  6
CONTINUOUS
 62
     7
100
AcDbCircle
 10
277.490509
 20
935.402485
 30
0.0
 40
21.2504
100
AcDbArc
 50
64.9424
 51
115.0576
  0
ARC
  5
4E8
100
AcDbEntity
  8
2
  6
CONTINUOUS
 62
     7
100
AcDbCircle
 10
80.490509
 20
1011.002485
 30
0.0
 40
2.0
100
AcDbArc
 50
90.0
 51
180.0
  0
ARC
  5
4E9
100
AcDbEntity
  8
2
  6
CONTINUOUS
 62
     7
100
AcDbCircle
 10
80.490509
 20
920.002485
 30
0.0
 40
2.0
100
AcDbArc
 50
180.0
 51
-90.0
  0
ARC
  5
4EA
100
AcDbEntity
  8
2
  6
CONTINUOUS
 62
     7
100
AcDbCircle
 10
89.490509
 20
1011.002485
 30
0.0
 40
2.0
100
AcDbArc
 50
0.0
 51
90.0
  0
ARC
  5
4EB
100
AcDbEntity
  8
2
  6
CONTINUOUS
 62
     7
100
AcDbCircle
 10
89.490509
 20
920.002485
 30
0.0
 40
2.0
100
AcDbArc
 50
-90.0
 51
0.0
  0
ARC
  5
4EC
100
AcDbEntity
  8
2
  6
CONTINUOUS
 62
     7
100
AcDbCircle
 10
95.490509
 20
987.352885
 30
0.0
 40
4.0
100
AcDbArc
 50
180.0
 51
-90.0
  0
ARC
  5
4ED
100
AcDbEntity
  8
2
  6
CONTINUOUS
 62
     7
100
AcDbCircle
 10
95.490509
 20
943.652885
 30
0.0
 40
4.0
100
AcDbArc
 50
90.0
 51
180.0
  0
CIRCLE
  5
4EE
100
AcDbEntity
  8
2
  6
CONTINUOUS
 62
     7
100
AcDbCircle
 10
277.490509
 20
911.652885
 30
0.0
 40
4.0416
  0
CIRCLE
  5
4EF
100
AcDbEntity
  8
2
  6
CONTINUOUS
 62
     7
100
AcDbCircle
 10
277.490509
 20
911.652885
 30
0.0
 40
2.5
  0
CIRCLE
  5
4F0
100
AcDbEntity
  8
2
  6
CONTINUOUS
 62
     7
100
AcDbCircle
 10
277.490509
 20
911.652885
 30
0.0
 40
3.5
  0
ARC
  5
4F1
100
AcDbEntity
  8
2
  6
CONTINUOUS
 62
     7
100
AcDbCircle
 10
282.990509
 20
919.152885
 30
0.0
 40
20.5
100
AcDbArc
 50
77.3196
 51
102.6804
  0
ARC
  5
4F2
100
AcDbEntity
  8
2
  6
CONTINUOUS
 62
     7
100
AcDbCircle
 10
271.989709
 20
919.152885
 30
0.0
 40
20.5
100
AcDbArc
 50
77.3196
 51
102.6804
  0
CIRCLE
  5
4F3
100
AcDbEntity
  8
2
  6
CONTINUOUS
 62
     7
100
AcDbCircle
 10
277.490509
 20
911.652885
 30
0.0
 40
2.0
  0
CIRCLE
  5
4F4
100
AcDbEntity
  8
2
  6
CONTINUOUS
 62
     7
100
AcDbCircle
 10
1877.490509
 20
911.652885
 30
0.0
 40
4.0416
  0
CIRCLE
  5
4F5
100
AcDbEntity
  8
2
  6
CONTINUOUS
 62
     7
100
AcDbCircle
 10
1877.490509
 20
911.652885
 30
0.0
 40
2.5
  0
CIRCLE
  5
4F6
100
AcDbEntity
  8
2
  6
CONTINUOUS
 62
     7
100
AcDbCircle
 10
1877.490509
 20
911.652885
 30
0.0
 40
3.5
  0
ARC
  5
4F7
100
AcDbEntity
  8
2
  6
CONTINUOUS
 62
     7
100
AcDbCircle
 10
1882.990509
 20
919.152885
 30
0.0
 40
20.5
100
AcDbArc
 50
77.3196
 51
102.6804
  0
ARC
  5
4F8
100
AcDbEntity
  8
2
  6
CONTINUOUS
 62
     7
100
AcDbCircle
 10
1871.990509
 20
919.152885
 30
0.0
 40
20.5
100
AcDbArc
 50
77.3196
 51
102.6804
  0
CIRCLE
  5
4F9
100
AcDbEntity
  8
2
  6
CONTINUOUS
 62
     7
100
AcDbCircle
 10
1877.490509
 20
911.652885
 30
0.0
 40
2.0
  0
ARC
  5
4FA
100
AcDbEntity
  8
2
  6
CONTINUOUS
 62
     7
100
AcDbCircle
 10
1877.490509
 20
935.402485
 30
0.0
 40
21.2504
100
AcDbArc
 50
64.9424
 51
115.0576
  0
CIRCLE
  5
4FB
100
AcDbEntity
  8
2
  6
CONTINUOUS
 62
     7
100
AcDbCircle
 10
1477.490509
 20
911.652885
 30
0.0
 40
2.0
  0
ARC
  5
4FC
100
AcDbEntity
  8
2
  6
CONTINUOUS
 62
     7
100
AcDbCircle
 10
1477.490509
 20
935.402485
 30
0.0
 40
21.2504
100
AcDbArc
 50
64.9424
 51
115.0576
  0
CIRCLE
  5
4FD
100
AcDbEntity
  8
2
  6
CONTINUOUS
 62
     7
100
AcDbCircle
 10
1477.490509
 20
911.652885
 30
0.0
 40
4.0416
  0
CIRCLE
  5
4FE
100
AcDbEntity
  8
2
  6
CONTINUOUS
 62
     7
100
AcDbCircle
 10
1477.490509
 20
911.652885
 30
0.0
 40
2.5
  0
CIRCLE
  5
4FF
100
AcDbEntity
  8
2
  6
CONTINUOUS
 62
     7
100
AcDbCircle
 10
1477.490509
 20
911.652885
 30
0.0
 40
3.5
  0
ARC
  5
500
100
AcDbEntity
  8
2
  6
CONTINUOUS
 62
     7
100
AcDbCircle
 10
1482.990509
 20
919.152885
 30
0.0
 40
20.5
100
AcDbArc
 50
77.3196
 51
102.6804
  0
ARC
  5
501
100
AcDbEntity
  8
2
  6
CONTINUOUS
 62
     7
100
AcDbCircle
 10
1471.990509
 20
919.152885
 30
0.0
 40
20.5
100
AcDbArc
 50
77.3196
 51
102.6804
  0
CIRCLE
  5
502
100
AcDbEntity
  8
2
  6
CONTINUOUS
 62
     7
100
AcDbCircle
 10
1077.490509
 20
911.652885
 30
0.0
 40
2.0
  0
ARC
  5
503
100
AcDbEntity
  8
2
  6
CONTINUOUS
 62
     7
100
AcDbCircle
 10
1077.490509
 20
935.402485
 30
0.0
 40
21.2504
100
AcDbArc
 50
64.9424
 51
115.0576
  0
CIRCLE
  5
504
100
AcDbEntity
  8
2
  6
CONTINUOUS
 62
     7
100
AcDbCircle
 10
1077.490509
 20
911.652885
 30
0.0
 40
4.0416
  0
CIRCLE
  5
505
100
AcDbEntity
  8
2
  6
CONTINUOUS
 62
     7
100
AcDbCircle
 10
1077.490509
 20
911.652885
 30
0.0
 40
2.5
  0
CIRCLE
  5
506
100
AcDbEntity
  8
2
  6
CONTINUOUS
 62
     7
100
AcDbCircle
 10
1077.490509
 20
911.652885
 30
0.0
 40
3.5
  0
ARC
  5
507
100
AcDbEntity
  8
2
  6
CONTINUOUS
 62
     7
100
AcDbCircle
 10
1082.990509
 20
919.152885
 30
0.0
 40
20.5
100
AcDbArc
 50
77.3196
 51
102.6804
  0
ARC
  5
508
100
AcDbEntity
  8
2
  6
CONTINUOUS
 62
     7
100
AcDbCircle
 10
1071.990509
 20
919.152885
 30
0.0
 40
20.5
100
AcDbArc
 50
77.3196
 51
102.6804
  0
CIRCLE
  5
509
100
AcDbEntity
  8
2
  6
CONTINUOUS
 62
     7
100
AcDbCircle
 10
677.490509
 20
911.652885
 30
0.0
 40
2.0
  0
ARC
  5
50A
100
AcDbEntity
  8
2
  6
CONTINUOUS
 62
     7
100
AcDbCircle
 10
671.990509
 20
919.152885
 30
0.0
 40
20.5
100
AcDbArc
 50
77.3196
 51
102.6804
  0
ARC
  5
50B
100
AcDbEntity
  8
2
  6
CONTINUOUS
 62
     7
100
AcDbCircle
 10
677.490509
 20
935.402485
 30
0.0
 40
21.2504
100
AcDbArc
 50
64.9424
 51
115.0576
  0
CIRCLE
  5
50C
100
AcDbEntity
  8
2
  6
CONTINUOUS
 62
     7
100
AcDbCircle
 10
677.490509
 20
911.652885
 30
0.0
 40
4.0416
  0
CIRCLE
  5
50D
100
AcDbEntity
  8
2
  6
CONTINUOUS
 62
     7
100
AcDbCircle
 10
677.490509
 20
911.652885
 30
0.0
 40
2.5
  0
CIRCLE
  5
50E
100
AcDbEntity
  8
2
  6
CONTINUOUS
 62
     7
100
AcDbCircle
 10
677.490509
 20
911.652885
 30
0.0
 40
3.5
  0
ARC
  5
50F
100
AcDbEntity
  8
2
  6
CONTINUOUS
 62
     7
100
AcDbCircle
 10
682.990509
 20
919.152885
 30
0.0
 40
20.5
100
AcDbArc
 50
77.3196
 51
102.6804
  0
ARC
  5
510
100
AcDbEntity
  8
2
  6
CONTINUOUS
 62
     7
100
AcDbCircle
 10
181.240109
 20
946.464885
 30
0.0
 40
1.8128
100
AcDbArc
 50
-133.6028
 51
-46.3972
  0
ARC
  5
511
100
AcDbEntity
  8
2
  6
CONTINUOUS
 62
     7
100
AcDbCircle
 10
177.490509
 20
951.152885
 30
0.0
 40
6.5
100
AcDbArc
 50
-112.6199
 51
-90.0
  0
ARC
  5
512
100
AcDbEntity
  8
2
  6
CONTINUOUS
 62
     7
100
AcDbCircle
 10
177.490509
 20
951.152885
 30
0.0
 40
6.5
100
AcDbArc
 50
-90.0
 51
-67.3801
  0
ARC
  5
513
100
AcDbEntity
  8
2
  6
CONTINUOUS
 62
     7
100
AcDbCircle
 10
173.740109
 20
946.464885
 30
0.0
 40
1.8128
100
AcDbArc
 50
-133.6028
 51
-46.3972
  0
ARC
  5
514
100
AcDbEntity
  8
2
  6
CONTINUOUS
 62
     7
100
AcDbCircle
 10
838.689709
 20
621.036885
 30
0.0
 40
47.5
100
AcDbArc
 50
90.0
 51
180.0
  0
ARC
  5
515
100
AcDbEntity
  8
2
  6
CONTINUOUS
 62
     7
100
AcDbCircle
 10
838.689709
 20
621.036885
 30
0.0
 40
25.5
100
AcDbArc
 50
90.0
 51
180.0
  0
ARC
  5
516
100
AcDbEntity
  8
2
  6
CENTER
 62
     7
100
AcDbCircle
 10
838.689709
 20
621.036885
 30
0.0
 40
35.0
100
AcDbArc
 50
90.0
 51
180.0
  0
CIRCLE
  5
517
100
AcDbEntity
  8
2
  6
CONTINUOUS
 62
     7
100
AcDbCircle
 10
813.940909
 20
645.785685
 30
0.0
 40
7.5
  0
CIRCLE
  5
518
100
AcDbEntity
  8
2
  6
CONTINUOUS
 62
     7
100
AcDbCircle
 10
813.940909
 20
596.288085
 30
0.0
 40
7.5
  0
ARC
  5
519
100
AcDbEntity
  8
2
  6
CONTINUOUS
 62
     7
100
AcDbCircle
 10
838.689709
 20
621.036885
 30
0.0
 40
25.5
100
AcDbArc
 50
180.0
 51
-90.0
  0
ARC
  5
51A
100
AcDbEntity
  8
2
  6
CENTER
 62
     7
100
AcDbCircle
 10
838.689709
 20
621.036885
 30
0.0
 40
35.0
100
AcDbArc
 50
180.0
 51
-90.0
  0
ARC
  5
51B
100
AcDbEntity
  8
2
  6
CONTINUOUS
 62
     7
100
AcDbCircle
 10
838.689709
 20
621.036885
 30
0.0
 40
47.5
100
AcDbArc
 50
180.0
 51
-90.0
  0
ARC
  5
51C
100
AcDbEntity
  8
2
  6
CONTINUOUS
 62
     7
100
AcDbCircle
 10
838.689709
 20
621.036885
 30
0.0
 40
10.8496
100
AcDbArc
 50
90.0
 51
180.0
  0
ARC
  5
51D
100
AcDbEntity
  8
2
  6
CONTINUOUS
 62
     7
100
AcDbCircle
 10
838.689709
 20
621.036885
 30
0.0
 40
7.1504
100
AcDbArc
 50
180.0
 51
-90.0
  0
ARC
  5
51E
100
AcDbEntity
  8
2
  6
CONTINUOUS
 62
     7
100
AcDbCircle
 10
838.689709
 20
621.036885
 30
0.0
 40
10.8496
100
AcDbArc
 50
180.0
 51
-90.0
  0
ARC
  5
51F
100
AcDbEntity
  8
2
  6
CONTINUOUS
 62
     7
100
AcDbCircle
 10
838.689709
 20
621.036885
 30
0.0
 40
7.1504
100
AcDbArc
 50
90.0
 51
-90.0
  0
ARC
  5
520
100
AcDbEntity
  8
2
  6
CONTINUOUS
 62
     7
100
AcDbCircle
 10
1931.240109
 20
946.464885
 30
0.0
 40
1.8128
100
AcDbArc
 50
-133.6028
 51
-46.3972
  0
ARC
  5
521
100
AcDbEntity
  8
2
  6
CONTINUOUS
 62
     7
100
AcDbCircle
 10
1927.490509
 20
951.152885
 30
0.0
 40
6.5
100
AcDbArc
 50
-112.6199
 51
-90.0
  0
ARC
  5
522
100
AcDbEntity
  8
2
  6
CONTINUOUS
 62
     7
100
AcDbCircle
 10
1927.490509
 20
951.152885
 30
0.0
 40
6.5
100
AcDbArc
 50
-90.0
 51
-67.3801
  0
ARC
  5
523
100
AcDbEntity
  8
2
  6
CONTINUOUS
 62
     7
100
AcDbCircle
 10
1923.740109
 20
946.464885
 30
0.0
 40
1.8128
100
AcDbArc
 50
-133.6028
 51
-46.3972
  0
ARC
  5
524
100
AcDbEntity
  8
2
  6
CONTINUOUS
 62
     7
100
AcDbCircle
 10
1016.880109
 20
601.999285
 30
0.0
 40
1.8128
100
AcDbArc
 50
-133.6028
 51
-46.3972
  0
ARC
  5
525
100
AcDbEntity
  8
2
  6
CONTINUOUS
 62
     7
100
AcDbCircle
 10
1013.129709
 20
606.687285
 30
0.0
 40
6.5
100
AcDbArc
 50
-112.6199
 51
-90.0
  0
ARC
  5
526
100
AcDbEntity
  8
2
  6
CONTINUOUS
 62
     7
100
AcDbCircle
 10
1013.129709
 20
606.687285
 30
0.0
 40
6.5
100
AcDbArc
 50
-90.0
 51
-67.3801
  0
ARC
  5
527
100
AcDbEntity
  8
2
  6
CONTINUOUS
 62
     7
100
AcDbCircle
 10
1009.380109
 20
601.999285
 30
0.0
 40
1.8128
100
AcDbArc
 50
-133.6028
 51
-46.3972
  0
ARC
  5
528
100
AcDbEntity
  8
2
  6
CONTINUOUS
 62
     7
100
AcDbCircle
 10
2766.879309
 20
601.999285
 30
0.0
 40
1.8128
100
AcDbArc
 50
-133.6028
 51
-46.3972
  0
ARC
  5
529
100
AcDbEntity
  8
2
  6
CONTINUOUS
 62
     7
100
AcDbCircle
 10
2763.129709
 20
606.687285
 30
0.0
 40
6.5
100
AcDbArc
 50
-112.6199
 51
-90.0
  0
ARC
  5
52A
100
AcDbEntity
  8
2
  6
CONTINUOUS
 62
     7
100
AcDbCircle
 10
2763.129709
 20
606.687285
 30
0.0
 40
6.5
100
AcDbArc
 50
-90.0
 51
-67.3801
  0
ARC
  5
52B
100
AcDbEntity
  8
2
  6
CONTINUOUS
 62
     7
100
AcDbCircle
 10
2759.379309
 20
601.999285
 30
0.0
 40
1.8128
100
AcDbArc
 50
-133.6028
 51
-46.3972
  0
ARC
  5
52C
100
AcDbEntity
  8
2
  6
CONTINUOUS
 62
     7
100
AcDbCircle
 10
1956.879309
 20
601.999285
 30
0.0
 40
1.8128
100
AcDbArc
 50
-133.6028
 51
-46.3972
  0
ARC
  5
52D
100
AcDbEntity
  8
2
  6
CONTINUOUS
 62
     7
100
AcDbCircle
 10
1953.129709
 20
606.687285
 30
0.0
 40
6.5
100
AcDbArc
 50
-112.6199
 51
-90.0
  0
ARC
  5
52E
100
AcDbEntity
  8
2
  6
CONTINUOUS
 62
     7
100
AcDbCircle
 10
1953.129709
 20
606.687285
 30
0.0
 40
6.5
100
AcDbArc
 50
-90.0
 51
-67.3801
  0
ARC
  5
52F
100
AcDbEntity
  8
2
  6
CONTINUOUS
 62
     7
100
AcDbCircle
 10
1949.380109
 20
601.999285
 30
0.0
 40
1.8128
100
AcDbArc
 50
-133.6028
 51
-46.3972
  0
ARC
  5
530
100
AcDbEntity
  8
2
  6
CONTINUOUS
 62
     7
100
AcDbCircle
 10
277.490509
 20
911.652885
 30
0.0
 40
7.0
100
AcDbArc
 50
90.0
 51
180.0
  0
ARC
  5
531
100
AcDbEntity
  8
2
  6
CONTINUOUS
 62
     7
100
AcDbCircle
 10
677.490509
 20
911.652885
 30
0.0
 40
7.0
100
AcDbArc
 50
90.0
 51
180.0
  0
ARC
  5
532
100
AcDbEntity
  8
2
  6
CONTINUOUS
 62
     7
100
AcDbCircle
 10
1077.490509
 20
911.652885
 30
0.0
 40
7.0
100
AcDbArc
 50
90.0
 51
180.0
  0
ARC
  5
533
100
AcDbEntity
  8
2
  6
CONTINUOUS
 62
     7
100
AcDbCircle
 10
1477.490509
 20
911.652885
 30
0.0
 40
7.0
100
AcDbArc
 50
90.0
 51
180.0
  0
ARC
  5
534
100
AcDbEntity
  8
2
  6
CONTINUOUS
 62
     7
100
AcDbCircle
 10
1877.490509
 20
911.652885
 30
0.0
 40
7.0
100
AcDbArc
 50
90.0
 51
180.0
  0
ARC
  5
535
100
AcDbEntity
  8
2
  6
CONTINUOUS
 62
     7
100
AcDbCircle
 10
981.240109
 20
946.464885
 30
0.0
 40
1.8128
100
AcDbArc
 50
-133.6028
 51
-46.3972
  0
ARC
  5
536
100
AcDbEntity
  8
2
  6
CONTINUOUS
 62
     7
100
AcDbCircle
 10
977.490509
 20
951.152885
 30
0.0
 40
6.5
100
AcDbArc
 50
-112.6199
 51
-90.0
  0
ARC
  5
537
100
AcDbEntity
  8
2
  6
CONTINUOUS
 62
     7
100
AcDbCircle
 10
977.490509
 20
951.152885
 30
0.0
 40
6.5
100
AcDbArc
 50
-90.0
 51
-67.3801
  0
ARC
  5
538
100
AcDbEntity
  8
2
  6
CONTINUOUS
 62
     7
100
AcDbCircle
 10
973.740109
 20
946.464885
 30
0.0
 40
1.8128
100
AcDbArc
 50
-133.6028
 51
-46.3972
  0
ARC
  5
539
100
AcDbEntity
  8
2
  6
CONTINUOUS
 62
     7
100
AcDbCircle
 10
172.990509
 20
921.152885
 30
0.0
 40
2.5
100
AcDbArc
 50
0.0
 51
180.0
  0
ARC
  5
53A
100
AcDbEntity
  8
2
  6
CONTINUOUS
 62
     7
100
AcDbCircle
 10
172.990509
 20
817.152885
 30
0.0
 40
2.5
100
AcDbArc
 50
180.0
 51
0.0
  0
CIRCLE
  5
53B
100
AcDbEntity
  8
2
  6
CONTINUOUS
 62
     7
100
AcDbCircle
 10
172.990509
 20
829.152885
 30
0.0
 40
11.0
  0
CIRCLE
  5
53C
100
AcDbEntity
  8
2
  6
CONTINUOUS
 62
     7
100
AcDbCircle
 10
172.990509
 20
909.152885
 30
0.0
 40
7.0
  0
CIRCLE
  5
53D
100
AcDbEntity
  8
2
  6
CONTINUOUS
 62
     7
100
AcDbCircle
 10
172.990509
 20
909.152885
 30
0.0
 40
11.0
  0
CIRCLE
  5
53E
100
AcDbEntity
  8
2
  6
CONTINUOUS
 62
     7
100
AcDbCircle
 10
172.990509
 20
909.152885
 30
0.0
 40
5.0
  0
CIRCLE
  5
53F
100
AcDbEntity
  8
2
  6
CONTINUOUS
 62
     7
100
AcDbCircle
 10
172.990509
 20
909.152885
 30
0.0
 40
4.2
  0
CIRCLE
  5
540
100
AcDbEntity
  8
2
  6
CONTINUOUS
 62
     7
100
AcDbCircle
 10
172.990509
 20
909.152885
 30
0.0
 40
3.2504
  0
CIRCLE
  5
541
100
AcDbEntity
  8
2
  6
CONTINUOUS
 62
     7
100
AcDbCircle
 10
172.990509
 20
829.152885
 30
0.0
 40
5.0
  0
CIRCLE
  5
542
100
AcDbEntity
  8
2
  6
CONTINUOUS
 62
     7
100
AcDbCircle
 10
172.990509
 20
829.152885
 30
0.0
 40
4.2
  0
CIRCLE
  5
543
100
AcDbEntity
  8
2
  6
CONTINUOUS
 62
     7
100
AcDbCircle
 10
172.990509
 20
829.152885
 30
0.0
 40
7.0
  0
CIRCLE
  5
544
100
AcDbEntity
  8
2
  6
CONTINUOUS
 62
     7
100
AcDbCircle
 10
172.990509
 20
829.152885
 30
0.0
 40
3.2504
  0
ARC
  5
545
100
AcDbEntity
  8
2
  6
CONTINUOUS
 62
     7
100
AcDbCircle
 10
972.990509
 20
921.152885
 30
0.0
 40
2.5
100
AcDbArc
 50
0.0
 51
180.0
  0
ARC
  5
546
100
AcDbEntity
  8
2
  6
CONTINUOUS
 62
     7
100
AcDbCircle
 10
972.990509
 20
817.152885
 30
0.0
 40
2.5
100
AcDbArc
 50
180.0
 51
0.0
  0
CIRCLE
  5
547
100
AcDbEntity
  8
2
  6
CONTINUOUS
 62
     7
100
AcDbCircle
 10
972.990509
 20
829.152885
 30
0.0
 40
11.0
  0
CIRCLE
  5
548
100
AcDbEntity
  8
2
  6
CONTINUOUS
 62
     7
100
AcDbCircle
 10
972.990509
 20
909.152885
 30
0.0
 40
7.0
  0
CIRCLE
  5
549
100
AcDbEntity
  8
2
  6
CONTINUOUS
 62
     7
100
AcDbCircle
 10
972.990509
 20
909.152885
 30
0.0
 40
11.0
  0
CIRCLE
  5
54A
100
AcDbEntity
  8
2
  6
CONTINUOUS
 62
     7
100
AcDbCircle
 10
972.990509
 20
909.152885
 30
0.0
 40
5.0
  0
CIRCLE
  5
54B
100
AcDbEntity
  8
2
  6
CONTINUOUS
 62
     7
100
AcDbCircle
 10
972.990509
 20
909.152885
 30
0.0
 40
4.2
  0
CIRCLE
  5
54C
100
AcDbEntity
  8
2
  6
CONTINUOUS
 62
     7
100
AcDbCircle
 10
972.990509
 20
909.152885
 30
0.0
 40
3.2504
  0
CIRCLE
  5
54D
100
AcDbEntity
  8
2
  6
CONTINUOUS
 62
     7
100
AcDbCircle
 10
972.990509
 20
829.152885
 30
0.0
 40
5.0
  0
CIRCLE
  5
54E
100
AcDbEntity
  8
2
  6
CONTINUOUS
 62
     7
100
AcDbCircle
 10
972.990509
 20
829.152885
 30
0.0
 40
4.2
  0
CIRCLE
  5
54F
100
AcDbEntity
  8
2
  6
CONTINUOUS
 62
     7
100
AcDbCircle
 10
972.990509
 20
829.152885
 30
0.0
 40
7.0
  0
CIRCLE
  5
550
100
AcDbEntity
  8
2
  6
CONTINUOUS
 62
     7
100
AcDbCircle
 10
972.990509
 20
829.152885
 30
0.0
 40
3.2504
  0
ARC
  5
551
100
AcDbEntity
  8
2
  6
CONTINUOUS
 62
     7
100
AcDbCircle
 10
1922.990509
 20
921.152885
 30
0.0
 40
2.5
100
AcDbArc
 50
0.0
 51
180.0
  0
ARC
  5
552
100
AcDbEntity
  8
2
  6
CONTINUOUS
 62
     7
100
AcDbCircle
 10
1922.990509
 20
817.152885
 30
0.0
 40
2.5
100
AcDbArc
 50
180.0
 51
0.0
  0
CIRCLE
  5
553
100
AcDbEntity
  8
2
  6
CONTINUOUS
 62
     7
100
AcDbCircle
 10
1922.990509
 20
829.152885
 30
0.0
 40
11.0
  0
CIRCLE
  5
554
100
AcDbEntity
  8
2
  6
CONTINUOUS
 62
     7
100
AcDbCircle
 10
1922.990509
 20
909.152885
 30
0.0
 40
7.0
  0
CIRCLE
  5
555
100
AcDbEntity
  8
2
  6
CONTINUOUS
 62
     7
100
AcDbCircle
 10
1922.990509
 20
909.152885
 30
0.0
 40
11.0
  0
CIRCLE
  5
556
100
AcDbEntity
  8
2
  6
CONTINUOUS
 62
     7
100
AcDbCircle
 10
1922.990509
 20
909.152885
 30
0.0
 40
5.0
  0
CIRCLE
  5
557
100
AcDbEntity
  8
2
  6
CONTINUOUS
 62
     7
100
AcDbCircle
 10
1922.990509
 20
909.152885
 30
0.0
 40
4.2
  0
CIRCLE
  5
558
100
AcDbEntity
  8
2
  6
CONTINUOUS
 62
     7
100
AcDbCircle
 10
1922.990509
 20
909.152885
 30
0.0
 40
3.2504
  0
CIRCLE
  5
559
100
AcDbEntity
  8
2
  6
CONTINUOUS
 62
     7
100
AcDbCircle
 10
1922.990509
 20
829.152885
 30
0.0
 40
5.0
  0
CIRCLE
  5
55A
100
AcDbEntity
  8
2
  6
CONTINUOUS
 62
     7
100
AcDbCircle
 10
1922.990509
 20
829.152885
 30
0.0
 40
4.2
  0
CIRCLE
  5
55B
100
AcDbEntity
  8
2
  6
CONTINUOUS
 62
     7
100
AcDbCircle
 10
1922.990509
 20
829.152885
 30
0.0
 40
7.0
  0
CIRCLE
  5
55C
100
AcDbEntity
  8
2
  6
CONTINUOUS
 62
     7
100
AcDbCircle
 10
1922.990509
 20
829.152885
 30
0.0
 40
3.2504
  0
ARC
  5
55D
100
AcDbEntity
  8
2
  6
CONTINUOUS
 62
     7
100
AcDbCircle
 10
1008.629709
 20
576.687285
 30
0.0
 40
2.5
100
AcDbArc
 50
0.0
 51
180.0
  0
ARC
  5
55E
100
AcDbEntity
  8
2
  6
CONTINUOUS
 62
     7
100
AcDbCircle
 10
1008.629709
 20
472.687285
 30
0.0
 40
2.5
100
AcDbArc
 50
180.0
 51
0.0
  0
CIRCLE
  5
55F
100
AcDbEntity
  8
2
  6
CONTINUOUS
 62
     7
100
AcDbCircle
 10
1008.629709
 20
484.687285
 30
0.0
 40
11.0
  0
CIRCLE
  5
560
100
AcDbEntity
  8
2
  6
CONTINUOUS
 62
     7
100
AcDbCircle
 10
1008.629709
 20
564.687285
 30
0.0
 40
7.0
  0
CIRCLE
  5
561
100
AcDbEntity
  8
2
  6
CONTINUOUS
 62
     7
100
AcDbCircle
 10
1008.629709
 20
564.687285
 30
0.0
 40
11.0
  0
CIRCLE
  5
562
100
AcDbEntity
  8
2
  6
CONTINUOUS
 62
     7
100
AcDbCircle
 10
1008.629709
 20
564.687285
 30
0.0
 40
5.0
  0
CIRCLE
  5
563
100
AcDbEntity
  8
2
  6
CONTINUOUS
 62
     7
100
AcDbCircle
 10
1008.629709
 20
564.687285
 30
0.0
 40
4.2
  0
CIRCLE
  5
564
100
AcDbEntity
  8
2
  6
CONTINUOUS
 62
     7
100
AcDbCircle
 10
1008.629709
 20
564.687285
 30
0.0
 40
3.2504
  0
CIRCLE
  5
565
100
AcDbEntity
  8
2
  6
CONTINUOUS
 62
     7
100
AcDbCircle
 10
1008.629709
 20
484.687285
 30
0.0
 40
5.0
  0
CIRCLE
  5
566
100
AcDbEntity
  8
2
  6
CONTINUOUS
 62
     7
100
AcDbCircle
 10
1008.629709
 20
484.687285
 30
0.0
 40
4.2
  0
CIRCLE
  5
567
100
AcDbEntity
  8
2
  6
CONTINUOUS
 62
     7
100
AcDbCircle
 10
1008.629709
 20
484.687285
 30
0.0
 40
7.0
  0
CIRCLE
  5
568
100
AcDbEntity
  8
2
  6
CONTINUOUS
 62
     7
100
AcDbCircle
 10
1008.629709
 20
484.687285
 30
0.0
 40
3.2504
  0
ARC
  5
569
100
AcDbEntity
  8
2
  6
CONTINUOUS
 62
     7
100
AcDbCircle
 10
1948.629709
 20
576.687285
 30
0.0
 40
2.5
100
AcDbArc
 50
0.0
 51
180.0
  0
ARC
  5
56A
100
AcDbEntity
  8
2
  6
CONTINUOUS
 62
     7
100
AcDbCircle
 10
1948.629709
 20
472.687285
 30
0.0
 40
2.5
100
AcDbArc
 50
180.0
 51
0.0
  0
CIRCLE
  5
56B
100
AcDbEntity
  8
2
  6
CONTINUOUS
 62
     7
100
AcDbCircle
 10
1948.629709
 20
484.687285
 30
0.0
 40
11.0
  0
CIRCLE
  5
56C
100
AcDbEntity
  8
2
  6
CONTINUOUS
 62
     7
100
AcDbCircle
 10
1948.629709
 20
564.687285
 30
0.0
 40
7.0
  0
CIRCLE
  5
56D
100
AcDbEntity
  8
2
  6
CONTINUOUS
 62
     7
100
AcDbCircle
 10
1948.629709
 20
564.687285
 30
0.0
 40
11.0
  0
CIRCLE
  5
56E
100
AcDbEntity
  8
2
  6
CONTINUOUS
 62
     7
100
AcDbCircle
 10
1948.629709
 20
564.687285
 30
0.0
 40
5.0
  0
CIRCLE
  5
56F
100
AcDbEntity
  8
2
  6
CONTINUOUS
 62
     7
100
AcDbCircle
 10
1948.629709
 20
564.687285
 30
0.0
 40
4.2
  0
CIRCLE
  5
570
100
AcDbEntity
  8
2
  6
CONTINUOUS
 62
     7
100
AcDbCircle
 10
1948.629709
 20
564.687285
 30
0.0
 40
3.2504
  0
CIRCLE
  5
571
100
AcDbEntity
  8
2
  6
CONTINUOUS
 62
     7
100
AcDbCircle
 10
1948.629709
 20
484.687285
 30
0.0
 40
5.0
  0
CIRCLE
  5
572
100
AcDbEntity
  8
2
  6
CONTINUOUS
 62
     7
100
AcDbCircle
 10
1948.629709
 20
484.687285
 30
0.0
 40
4.2
  0
CIRCLE
  5
573
100
AcDbEntity
  8
2
  6
CONTINUOUS
 62
     7
100
AcDbCircle
 10
1948.629709
 20
484.687285
 30
0.0
 40
7.0
  0
CIRCLE
  5
574
100
AcDbEntity
  8
2
  6
CONTINUOUS
 62
     7
100
AcDbCircle
 10
1948.629709
 20
484.687285
 30
0.0
 40
3.2504
  0
ARC
  5
575
100
AcDbEntity
  8
2
  6
CONTINUOUS
 62
     7
100
AcDbCircle
 10
2758.629709
 20
576.687285
 30
0.0
 40
2.5
100
AcDbArc
 50
0.0
 51
180.0
  0
ARC
  5
576
100
AcDbEntity
  8
2
  6
CONTINUOUS
 62
     7
100
AcDbCircle
 10
2758.629709
 20
472.687285
 30
0.0
 40
2.5
100
AcDbArc
 50
180.0
 51
0.0
  0
CIRCLE
  5
577
100
AcDbEntity
  8
2
  6
CONTINUOUS
 62
     7
100
AcDbCircle
 10
2758.629709
 20
484.687285
 30
0.0
 40
11.0
  0
CIRCLE
  5
578
100
AcDbEntity
  8
2
  6
CONTINUOUS
 62
     7
100
AcDbCircle
 10
2758.629709
 20
564.687285
 30
0.0
 40
7.0
  0
CIRCLE
  5
579
100
AcDbEntity
  8
2
  6
CONTINUOUS
 62
     7
100
AcDbCircle
 10
2758.629709
 20
564.687285
 30
0.0
 40
11.0
  0
CIRCLE
  5
57A
100
AcDbEntity
  8
2
  6
CONTINUOUS
 62
     7
100
AcDbCircle
 10
2758.629709
 20
564.687285
 30
0.0
 40
5.0
  0
CIRCLE
  5
57B
100
AcDbEntity
  8
2
  6
CONTINUOUS
 62
     7
100
AcDbCircle
 10
2758.629709
 20
564.687285
 30
0.0
 40
4.2
  0
CIRCLE
  5
57C
100
AcDbEntity
  8
2
  6
CONTINUOUS
 62
     7
100
AcDbCircle
 10
2758.629709
 20
564.687285
 30
0.0
 40
3.2504
  0
CIRCLE
  5
57D
100
AcDbEntity
  8
2
  6
CONTINUOUS
 62
     7
100
AcDbCircle
 10
2758.629709
 20
484.687285
 30
0.0
 40
5.0
  0
CIRCLE
  5
57E
100
AcDbEntity
  8
2
  6
CONTINUOUS
 62
     7
100
AcDbCircle
 10
2758.629709
 20
484.687285
 30
0.0
 40
4.2
  0
CIRCLE
  5
57F
100
AcDbEntity
  8
2
  6
CONTINUOUS
 62
     7
100
AcDbCircle
 10
2758.629709
 20
484.687285
 30
0.0
 40
7.0
  0
CIRCLE
  5
580
100
AcDbEntity
  8
2
  6
CONTINUOUS
 62
     7
100
AcDbCircle
 10
2758.629709
 20
484.687285
 30
0.0
 40
3.2504
  0
LINE
  5
581
100
AcDbEntity
  8
2
  6
CONTINUOUS
 62
     7
100
AcDbLine
 10
1275.129569
 20
631.887285
 30
0.0
 11
1272.129429
 21
634.887425
 31
0.0
  0
LINE
  5
582
100
AcDbEntity
  8
2
  6
CONTINUOUS
 62
     7
100
AcDbLine
 10
1251.129849
 20
631.887285
 30
0.0
 11
1254.129989
 21
634.887425
 31
0.0
  0
LINE
  5
583
100
AcDbEntity
  8
2
  6
CONTINUOUS
 62
     7
100
AcDbLine
 10
1272.129429
 20
651.887285
 30
0.0
 11
1271.129149
 21
652.886865
 31
0.0
  0
LINE
  5
584
100
AcDbEntity
  8
2
  6
CONTINUOUS
 62
     7
100
AcDbLine
 10
1267.129429
 20
664.587131
 30
0.0
 11
1267.129429
 21
656.586991
 31
0.0
  0
LINE
  5
585
100
AcDbEntity
  8
2
  6
CONTINUOUS
 62
     7
100
AcDbLine
 10
1267.129429
 20
664.587131
 30
0.0
 11
1263.129709
 21
664.587131
 31
0.0
  0
LINE
  5
586
100
AcDbEntity
  8
2
  6
CONTINUOUS
 62
     7
100
AcDbLine
 10
1254.129989
 20
651.887285
 30
0.0
 11
1255.129569
 21
652.886865
 31
0.0
  0
LINE
  5
587
100
AcDbEntity
  8
2
  6
CONTINUOUS
 62
     7
100
AcDbLine
 10
1259.129289
 20
664.587131
 30
0.0
 11
1259.129289
 21
656.586991
 31
0.0
  0
LINE
  5
588
100
AcDbEntity
  8
2
  6
CONTINUOUS
 62
     7
100
AcDbLine
 10
1259.129289
 20
664.587131
 30
0.0
 11
1263.129709
 21
664.587131
 31
0.0
  0
LINE
  5
589
100
AcDbEntity
  8
2
  6
CONTINUOUS
 62
     7
100
AcDbLine
 10
1256.453942
 20
656.586991
 30
0.0
 11
1263.129709
 21
656.586991
 31
0.0
  0
LINE
  5
58A
100
AcDbEntity
  8
2
  6
CONTINUOUS
 62
     7
100
AcDbLine
 10
1269.804775
 20
656.586991
 30
0.0
 11
1263.129709
 21
656.586991
 31
0.0
  0
LINE
  5
58B
100
AcDbEntity
  8
2
  6
CONTINUOUS
 62
     7
100
AcDbLine
 10
1255.129569
 20
652.886865
 30
0.0
 11
1263.129709
 21
652.886865
 31
0.0
  0
LINE
  5
58C
100
AcDbEntity
  8
2
  6
CONTINUOUS
 62
     7
100
AcDbLine
 10
1271.129149
 20
652.886865
 30
0.0
 11
1263.129709
 21
652.886865
 31
0.0
  0
LINE
  5
58D
100
AcDbEntity
  8
2
  6
CONTINUOUS
 62
     7
100
AcDbLine
 10
1254.129989
 20
634.887425
 30
0.0
 11
1263.129709
 21
634.887425
 31
0.0
  0
LINE
  5
58E
100
AcDbEntity
  8
2
  6
CONTINUOUS
 62
     7
100
AcDbLine
 10
1272.129429
 20
634.887425
 30
0.0
 11
1263.129709
 21
634.887425
 31
0.0
  0
LINE
  5
58F
100
AcDbEntity
  8
2
  6
CONTINUOUS
 62
     7
100
AcDbLine
 10
1254.129989
 20
651.887285
 30
0.0
 11
1254.129989
 21
634.887425
 31
0.0
  0
LINE
  5
590
100
AcDbEntity
  8
2
  6
CONTINUOUS
 62
     7
100
AcDbLine
 10
1272.129429
 20
651.887285
 30
0.0
 11
1272.129429
 21
634.887425
 31
0.0
  0
LINE
  5
591
100
AcDbEntity
  8
2
  6
CONTINUOUS
 62
     7
100
AcDbLine
 10
1269.70799
 20
652.886865
 30
0.0
 11
1269.804775
 21
656.586991
 31
0.0
  0
LINE
  5
592
100
AcDbEntity
  8
2
  6
CONTINUOUS
 62
     7
100
AcDbLine
 10
1256.551021
 20
652.886865
 30
0.0
 11
1256.453942
 21
656.586991
 31
0.0
  0
LINE
  5
593
100
AcDbEntity
  8
2
  6
CONTINUOUS
 62
     7
100
AcDbLine
 10
1689.490369
 20
976.352885
 30
0.0
 11
1686.490229
 21
979.353025
 31
0.0
  0
LINE
  5
594
100
AcDbEntity
  8
2
  6
CONTINUOUS
 62
     7
100
AcDbLine
 10
1665.490649
 20
976.352885
 30
0.0
 11
1668.490789
 21
979.353025
 31
0.0
  0
LINE
  5
595
100
AcDbEntity
  8
2
  6
CONTINUOUS
 62
     7
100
AcDbLine
 10
1686.490229
 20
996.352885
 30
0.0
 11
1685.489949
 21
997.352465
 31
0.0
  0
LINE
  5
596
100
AcDbEntity
  8
2
  6
CONTINUOUS
 62
     7
100
AcDbLine
 10
1681.490229
 20
1009.052731
 30
0.0
 11
1681.490229
 21
1001.052591
 31
0.0
  0
LINE
  5
597
100
AcDbEntity
  8
2
  6
CONTINUOUS
 62
     7
100
AcDbLine
 10
1681.490229
 20
1009.052731
 30
0.0
 11
1677.490509
 21
1009.052731
 31
0.0
  0
LINE
  5
598
100
AcDbEntity
  8
2
  6
CONTINUOUS
 62
     7
100
AcDbLine
 10
1668.490789
 20
996.352885
 30
0.0
 11
1669.490369
 21
997.352465
 31
0.0
  0
LINE
  5
599
100
AcDbEntity
  8
2
  6
CONTINUOUS
 62
     7
100
AcDbLine
 10
1673.490089
 20
1009.052731
 30
0.0
 11
1673.490089
 21
1001.052591
 31
0.0
  0
LINE
  5
59A
100
AcDbEntity
  8
2
  6
CONTINUOUS
 62
     7
100
AcDbLine
 10
1673.490089
 20
1009.052731
 30
0.0
 11
1677.490509
 21
1009.052731
 31
0.0
  0
LINE
  5
59B
100
AcDbEntity
  8
2
  6
CONTINUOUS
 62
     7
100
AcDbLine
 10
1670.814742
 20
1001.052591
 30
0.0
 11
1677.490509
 21
1001.052591
 31
0.0
  0
LINE
  5
59C
100
AcDbEntity
  8
2
  6
CONTINUOUS
 62
     7
100
AcDbLine
 10
1684.165575
 20
1001.052591
 30
0.0
 11
1677.490509
 21
1001.052591
 31
0.0
  0
LINE
  5
59D
100
AcDbEntity
  8
2
  6
CONTINUOUS
 62
     7
100
AcDbLine
 10
1669.490369
 20
997.352465
 30
0.0
 11
1677.490509
 21
997.352465
 31
0.0
  0
LINE
  5
59E
100
AcDbEntity
  8
2
  6
CONTINUOUS
 62
     7
100
AcDbLine
 10
1685.489949
 20
997.352465
 30
0.0
 11
1677.490509
 21
997.352465
 31
0.0
  0
LINE
  5
59F
100
AcDbEntity
  8
2
  6
CONTINUOUS
 62
     7
100
AcDbLine
 10
1668.490789
 20
979.353025
 30
0.0
 11
1677.490509
 21
979.353025
 31
0.0
  0
LINE
  5
5A0
100
AcDbEntity
  8
2
  6
CONTINUOUS
 62
     7
100
AcDbLine
 10
1686.490229
 20
979.353025
 30
0.0
 11
1677.490509
 21
979.353025
 31
0.0
  0
LINE
  5
5A1
100
AcDbEntity
  8
2
  6
CONTINUOUS
 62
     7
100
AcDbLine
 10
1668.490789
 20
996.352885
 30
0.0
 11
1668.490789
 21
979.353025
 31
0.0
  0
LINE
  5
5A2
100
AcDbEntity
  8
2
  6
CONTINUOUS
 62
     7
100
AcDbLine
 10
1686.490229
 20
996.352885
 30
0.0
 11
1686.490229
 21
979.353025
 31
0.0
  0
LINE
  5
5A3
100
AcDbEntity
  8
2
  6
CONTINUOUS
 62
     7
100
AcDbLine
 10
1684.06879
 20
997.352465
 30
0.0
 11
1684.165575
 21
1001.052591
 31
0.0
  0
LINE
  5
5A4
100
AcDbEntity
  8
2
  6
CONTINUOUS
 62
     7
100
AcDbLine
 10
1670.911821
 20
997.352465
 30
0.0
 11
1670.814742
 21
1001.052591
 31
0.0
  0
LINE
  5
5A5
100
AcDbEntity
  8
2
  6
CONTINUOUS
 62
     7
100
AcDbLine
 10
2052.490509
 20
965.502485
 30
0.0
 11
2052.490509
 21
976.352085
 31
0.0
  0
LINE
  5
5A6
100
AcDbEntity
  8
2
  6
CONTINUOUS
 62
     7
100
AcDbLine
 10
102.490509
 20
965.502485
 30
0.0
 11
102.490509
 21
976.352085
 31
0.0
  0
LINE
  5
5A7
100
AcDbEntity
  8
2
  6
CONTINUOUS
 62
     7
100
AcDbLine
 10
2057.490509
 20
983.352885
 30
0.0
 11
2057.490509
 21
965.502485
 31
0.0
  0
LINE
  5
5A8
100
AcDbEntity
  8
2
  6
CONTINUOUS
 62
     7
100
AcDbLine
 10
2063.490509
 20
1011.002485
 30
0.0
 11
2063.490509
 21
965.502485
 31
0.0
  0
LINE
  5
5A9
100
AcDbEntity
  8
2
  6
CONTINUOUS
 62
     7
100
AcDbLine
 10
2076.490509
 20
1011.002485
 30
0.0
 11
2076.490509
 21
965.502485
 31
0.0
  0
LINE
  5
5AA
100
AcDbEntity
  8
2
  6
CONTINUOUS
 62
     7
100
AcDbLine
 10
97.490509
 20
983.352885
 30
0.0
 11
97.490509
 21
965.502485
 31
0.0
  0
LINE
  5
5AB
100
AcDbEntity
  8
2
  6
CONTINUOUS
 62
     7
100
AcDbLine
 10
91.489709
 20
1011.002485
 30
0.0
 11
91.489709
 21
965.502485
 31
0.0
  0
LINE
  5
5AC
100
AcDbEntity
  8
2
  6
CONTINUOUS
 62
     7
100
AcDbLine
 10
78.490509
 20
1011.002485
 30
0.0
 11
78.490509
 21
965.502485
 31
0.0
  0
LINE
  5
5AD
100
AcDbEntity
  8
2
  6
CONTINUOUS
 62
     7
100
AcDbLine
 10
2052.490509
 20
976.352885
 30
0.0
 11
102.490509
 21
976.352885
 31
0.0
  0
LINE
  5
5AE
100
AcDbEntity
  8
2
  6
CONTINUOUS
 62
     7
100
AcDbLine
 10
883.129709
 20
638.887285
 30
0.0
 11
883.129709
 21
621.036885
 31
0.0
  0
LINE
  5
5AF
100
AcDbEntity
  8
2
  6
CONTINUOUS
 62
     7
100
AcDbLine
 10
877.129709
 20
666.536885
 30
0.0
 11
877.129709
 21
621.036885
 31
0.0
  0
LINE
  5
5B0
100
AcDbEntity
  8
2
  6
CONTINUOUS
 62
     7
100
AcDbLine
 10
864.129709
 20
666.536885
 30
0.0
 11
864.129709
 21
621.036885
 31
0.0
  0
LINE
  5
5B1
100
AcDbEntity
  8
2
  6
CONTINUOUS
 62
     7
100
AcDbLine
 10
888.129709
 20
631.887285
 30
0.0
 11
1263.129709
 21
631.887285
 31
0.0
  0
LINE
  5
5B2
100
AcDbEntity
  8
2
  6
CONTINUOUS
 62
     7
100
AcDbLine
 10
888.129709
 20
621.036885
 30
0.0
 11
888.129709
 21
631.886485
 31
0.0
  0
LINE
  5
5B3
100
AcDbEntity
  8
2
  6
CONTINUOUS
 62
     7
100
AcDbLine
 10
2838.129709
 20
621.036885
 30
0.0
 11
2838.129709
 21
631.886485
 31
0.0
  0
LINE
  5
5B4
100
AcDbEntity
  8
2
  6
CONTINUOUS
 62
     7
100
AcDbLine
 10
2843.129709
 20
638.887285
 30
0.0
 11
2843.129709
 21
621.036885
 31
0.0
  0
LINE
  5
5B5
100
AcDbEntity
  8
2
  6
CONTINUOUS
 62
     7
100
AcDbLine
 10
2849.129709
 20
666.536885
 30
0.0
 11
2849.129709
 21
621.036885
 31
0.0
  0
LINE
  5
5B6
100
AcDbEntity
  8
2
  6
CONTINUOUS
 62
     7
100
AcDbLine
 10
2862.129709
 20
666.536885
 30
0.0
 11
2862.129709
 21
621.036885
 31
0.0
  0
LINE
  5
5B7
100
AcDbEntity
  8
2
  6
CONTINUOUS
 62
     7
100
AcDbLine
 10
1263.129709
 20
631.887285
 30
0.0
 11
2838.129709
 21
631.887285
 31
0.0
  0
INSERT
  5
5C3
100
AcDbEntity
  8
2
  6
CONTINUOUS
 62
     7
100
AcDbBlockReference
  2
*G1
 10
0.0
 20
0.0
 30
0.0
  0
INSERT
  5
5CF
100
AcDbEntity
  8
2
  6
CONTINUOUS
 62
     7
100
AcDbBlockReference
  2
*G2
 10
0.0
 20
0.0
 30
0.0
  0
INSERT
  5
5DB
100
AcDbEntity
  8
2
  6
CONTINUOUS
 62
     7
100
AcDbBlockReference
  2
*G3
 10
0.0
 20
0.0
 30
0.0
  0
INSERT
  5
5E7
100
AcDbEntity
  8
2
  6
CONTINUOUS
 62
     7
100
AcDbBlockReference
  2
*G4
 10
0.0
 20
0.0
 30
0.0
  0
INSERT
  5
5F3
100
AcDbEntity
  8
2
  6
CONTINUOUS
 62
     7
100
AcDbBlockReference
  2
*G5
 10
0.0
 20
0.0
 30
0.0
  0
INSERT
  5
5FF
100
AcDbEntity
  8
2
  6
CONTINUOUS
 62
     7
100
AcDbBlockReference
  2
*G6
 10
0.0
 20
0.0
 30
0.0
  0
INSERT
  5
60B
100
AcDbEntity
  8
2
  6
CONTINUOUS
 62
     7
100
AcDbBlockReference
  2
*G7
 10
0.0
 20
0.0
 30
0.0
  0
INSERT
  5
617
100
AcDbEntity
  8
2
  6
CONTINUOUS
 62
     7
100
AcDbBlockReference
  2
*G8
 10
0.0
 20
0.0
 30
0.0
  0
INSERT
  5
623
100
AcDbEntity
  8
2
  6
CONTINUOUS
 62
     7
100
AcDbBlockReference
  2
*G9
 10
0.0
 20
0.0
 30
0.0
  0
LINE
  5
624
100
AcDbEntity
  8
2
  6
CONTINUOUS
 62
     7
100
AcDbLine
 10
180.490509
 20
974.652885
 30
0.0
 11
180.490509
 21
954.652885
 31
0.0
  0
LINE
  5
625
100
AcDbEntity
  8
2
  6
CONTINUOUS
 62
     7
100
AcDbLine
 10
174.490509
 20
974.652885
 30
0.0
 11
174.490509
 21
954.652885
 31
0.0
  0
ARC
  5
626
100
AcDbEntity
  8
2
  6
CONTINUOUS
 62
     7
100
AcDbCircle
 10
177.490509
 20
974.652885
 30
0.0
 40
3.0
100
AcDbArc
 50
0.0
 51
180.0
  0
LINE
  5
627
100
AcDbEntity
  8
2
  6
CONTINUOUS
 62
     7
100
AcDbLine
 10
980.490509
 20
974.652885
 30
0.0
 11
980.490509
 21
954.652885
 31
0.0
  0
LINE
  5
628
100
AcDbEntity
  8
2
  6
CONTINUOUS
 62
     7
100
AcDbLine
 10
974.490509
 20
974.652885
 30
0.0
 11
974.490509
 21
954.652885
 31
0.0
  0
ARC
  5
629
100
AcDbEntity
  8
2
  6
CONTINUOUS
 62
     7
100
AcDbCircle
 10
977.490509
 20
974.652885
 30
0.0
 40
3.0
100
AcDbArc
 50
0.0
 51
180.0
  0
LINE
  5
62A
100
AcDbEntity
  8
2
  6
CONTINUOUS
 62
     7
100
AcDbLine
 10
1930.490509
 20
974.652885
 30
0.0
 11
1930.490509
 21
954.652885
 31
0.0
  0
LINE
  5
62B
100
AcDbEntity
  8
2
  6
CONTINUOUS
 62
     7
100
AcDbLine
 10
1924.490509
 20
974.652885
 30
0.0
 11
1924.490509
 21
954.652885
 31
0.0
  0
ARC
  5
62C
100
AcDbEntity
  8
2
  6
CONTINUOUS
 62
     7
100
AcDbCircle
 10
1927.490509
 20
974.652885
 30
0.0
 40
3.0
100
AcDbArc
 50
0.0
 51
180.0
  0
LINE
  5
62D
100
AcDbEntity
  8
2
  6
CONTINUOUS
 62
     7
100
AcDbLine
 10
1016.129709
 20
630.187285
 30
0.0
 11
1016.129709
 21
610.187285
 31
0.0
  0
LINE
  5
62E
100
AcDbEntity
  8
2
  6
CONTINUOUS
 62
     7
100
AcDbLine
 10
1010.129709
 20
630.187285
 30
0.0
 11
1010.129709
 21
610.187285
 31
0.0
  0
ARC
  5
62F
100
AcDbEntity
  8
2
  6
CONTINUOUS
 62
     7
100
AcDbCircle
 10
1013.129709
 20
630.187285
 30
0.0
 40
3.0
100
AcDbArc
 50
0.0
 51
180.0
  0
LINE
  5
630
100
AcDbEntity
  8
2
  6
CONTINUOUS
 62
     7
100
AcDbLine
 10
1956.129709
 20
630.187285
 30
0.0
 11
1956.129709
 21
610.187285
 31
0.0
  0
LINE
  5
631
100
AcDbEntity
  8
2
  6
CONTINUOUS
 62
     7
100
AcDbLine
 10
1950.129709
 20
630.187285
 30
0.0
 11
1950.129709
 21
610.187285
 31
0.0
  0
ARC
  5
632
100
AcDbEntity
  8
2
  6
CONTINUOUS
 62
     7
100
AcDbCircle
 10
1953.129709
 20
630.187285
 30
0.0
 40
3.0
100
AcDbArc
 50
0.0
 51
180.0
  0
LINE
  5
633
100
AcDbEntity
  8
2
  6
CONTINUOUS
 62
     7
100
AcDbLine
 10
2766.129709
 20
630.187285
 30
0.0
 11
2766.129709
 21
610.187285
 31
0.0
  0
LINE
  5
634
100
AcDbEntity
  8
2
  6
CONTINUOUS
 62
     7
100
AcDbLine
 10
2760.129709
 20
630.187285
 30
0.0
 11
2760.129709
 21
610.187285
 31
0.0
  0
ARC
  5
635
100
AcDbEntity
  8
2
  6
CONTINUOUS
 62
     7
100
AcDbCircle
 10
2763.129709
 20
630.187285
 30
0.0
 40
3.0
100
AcDbArc
 50
0.0
 51
180.0
  0
LINE
  5
636
100
AcDbEntity
  8
2
  6
CONTINUOUS
 62
     7
100
AcDbLine
 10
1879.511331
 20
1198.325762
 30
0.0
 11
1879.511331
 21
1195.325762
 31
0.0
  0
LINE
  5
637
100
AcDbEntity
  8
2
  6
CONTINUOUS
 62
     7
100
AcDbLine
 10
1875.470009
 20
1198.325762
 30
0.0
 11
1875.470009
 21
1195.325762
 31
0.0
  0
LINE
  5
638
100
AcDbEntity
  8
2
  6
CONTINUOUS
 62
     7
100
AcDbLine
 10
1873.490509
 20
1198.325762
 30
0.0
 11
1881.490509
 21
1198.325762
 31
0.0
  0
LINE
  5
639
100
AcDbEntity
  8
2
  6
CONTINUOUS
 62
     7
100
AcDbLine
 10
1877.941852
 20
1199.325762
 30
0.0
 11
1876.998344
 21
1198.325762
 31
0.0
  0
LINE
  5
63A
100
AcDbEntity
  8
2
  6
CONTINUOUS
 62
     7
100
AcDbLine
 10
1870.490509
 20
1201.325762
 30
0.0
 11
1870.490509
 21
1199.325762
 31
0.0
  0
LINE
  5
63B
100
AcDbEntity
  8
2
  6
CONTINUOUS
 62
     7
100
AcDbLine
 10
1870.490509
 20
1199.325762
 30
0.0
 11
1884.490509
 21
1199.325762
 31
0.0
  0
LINE
  5
63C
100
AcDbEntity
  8
2
  6
CONTINUOUS
 62
     7
100
AcDbLine
 10
1884.490509
 20
1199.325762
 30
0.0
 11
1884.490509
 21
1201.325762
 31
0.0
  0
LINE
  5
63D
100
AcDbEntity
  8
2
  6
CONTINUOUS
 62
     7
100
AcDbLine
 10
1870.490509
 20
1201.325762
 30
0.0
 11
1879.490509
 21
1201.325762
 31
0.0
  0
LINE
  5
63E
100
AcDbEntity
  8
2
  6
CONTINUOUS
 62
     7
100
AcDbLine
 10
1879.490509
 20
1201.325762
 30
0.0
 11
1879.490509
 21
1202.799013
 31
0.0
  0
LINE
  5
63F
100
AcDbEntity
  8
2
  6
CONTINUOUS
 62
     7
100
AcDbLine
 10
1879.490509
 20
1202.799013
 30
0.0
 11
1884.490509
 21
1202.799013
 31
0.0
  0
LINE
  5
640
100
AcDbEntity
  8
2
  6
CONTINUOUS
 62
     7
100
AcDbLine
 10
1884.490509
 20
1202.799013
 30
0.0
 11
1884.490509
 21
1201.325762
 31
0.0
  0
LINE
  5
641
100
AcDbEntity
  8
2
  6
CONTINUOUS
 62
     7
100
AcDbLine
 10
1879.490509
 20
1201.325762
 30
0.0
 11
1879.490509
 21
1199.325762
 31
0.0
  0
LINE
  5
642
100
AcDbEntity
  8
2
  6
CONTINUOUS
 62
     7
100
AcDbLine
 10
1867.490509
 20
1203.475762
 30
0.0
 11
1867.490509
 21
1201.825762
 31
0.0
  0
LINE
  5
643
100
AcDbEntity
  8
2
  6
CONTINUOUS
 62
     7
100
AcDbLine
 10
1867.490509
 20
1201.825762
 30
0.0
 11
1879.490509
 21
1201.825762
 31
0.0
  0
LINE
  5
644
100
AcDbEntity
  8
2
  6
CONTINUOUS
 62
     7
100
AcDbLine
 10
1887.490509
 20
1203.475762
 30
0.0
 11
1887.490509
 21
1201.825762
 31
0.0
  0
LINE
  5
645
100
AcDbEntity
  8
2
  6
CONTINUOUS
 62
     7
100
AcDbLine
 10
1887.490509
 20
1201.825762
 30
0.0
 11
1884.490509
 21
1201.825762
 31
0.0
  0
LINE
  5
646
100
AcDbEntity
  8
2
  6
CONTINUOUS
 62
     7
100
AcDbLine
 10
1871.903404
 20
1201.825762
 30
0.0
 11
1871.903404
 21
1201.325762
 31
0.0
  0
LINE
  5
647
100
AcDbEntity
  8
2
  6
CONTINUOUS
 62
     7
100
AcDbLine
 10
1884.490509
 20
1199.325762
 30
0.0
 11
1884.490509
 21
1194.639376
 31
0.0
  0
ARC
  5
648
100
AcDbEntity
  8
2
  6
CONTINUOUS
 62
     7
100
AcDbCircle
 10
1883.490509
 20
1194.639376
 30
0.0
 40
1.0
100
AcDbArc
 50
-90.0
 51
0.0
  0
LINE
  5
649
100
AcDbEntity
  8
2
  6
CONTINUOUS
 62
     7
100
AcDbLine
 10
1870.490509
 20
1199.325762
 30
0.0
 11
1870.490509
 21
1194.639376
 31
0.0
  0
LINE
  5
64A
100
AcDbEntity
  8
2
  6
CONTINUOUS
 62
     7
100
AcDbLine
 10
1871.490509
 20
1193.639376
 30
0.0
 11
1883.490509
 21
1193.639376
 31
0.0
  0
ARC
  5
64B
100
AcDbEntity
  8
2
  6
CONTINUOUS
 62
     7
100
AcDbCircle
 10
1871.490509
 20
1194.639376
 30
0.0
 40
1.0
100
AcDbArc
 50
180.0
 51
-90.0
  0
ARC
  5
64C
100
AcDbEntity
  8
2
  6
CONTINUOUS
 62
     7
100
AcDbCircle
 10
1875.635033
 20
1192.052169
 30
0.0
 40
9.939362
100
AcDbArc
 50
7.449198
 51
27.007116
  0
ARC
  5
64D
100
AcDbEntity
  8
2
  6
CONTINUOUS
 62
     7
100
AcDbCircle
 10
1879.345985
 20
1192.052169
 30
0.0
 40
9.939362
100
AcDbArc
 50
152.992884
 51
172.550802
  0
LINE
  5
64E
100
AcDbEntity
  8
2
  6
CONTINUOUS
 62
     7
100
AcDbLine
 10
1885.490509
 20
1193.340778
 30
0.0
 11
1885.490509
 21
1181.630048
 31
0.0
  0
ARC
  5
64F
100
AcDbEntity
  8
2
  6
CONTINUOUS
 62
     7
100
AcDbCircle
 10
1883.365509
 20
1179.732012
 30
0.0
 40
2.65625
100
AcDbArc
 50
-64.942384
 51
31.273298
  0
ARC
  5
650
100
AcDbEntity
  8
2
  6
CONTINUOUS
 62
     7
100
AcDbCircle
 10
1886.490509
 20
1181.630048
 30
0.0
 40
1.0
100
AcDbArc
 50
180.0
 51
-148.726702
  0
LINE
  5
651
100
AcDbEntity
  8
2
  6
CONTINUOUS
 62
     7
100
AcDbLine
 10
1877.490509
 20
1177.325762
 30
0.0
 11
1884.490509
 21
1177.325762
 31
0.0
  0
LINE
  5
652
100
AcDbEntity
  8
2
  6
CONTINUOUS
 62
     7
100
AcDbLine
 10
1869.490509
 20
1193.340778
 30
0.0
 11
1869.490509
 21
1181.630048
 31
0.0
  0
ARC
  5
653
100
AcDbEntity
  8
2
  6
CONTINUOUS
 62
     7
100
AcDbCircle
 10
1871.615509
 20
1179.732012
 30
0.0
 40
2.65625
100
AcDbArc
 50
148.726702
 51
-115.057616
  0
ARC
  5
654
100
AcDbEntity
  8
2
  6
CONTINUOUS
 62
     7
100
AcDbCircle
 10
1868.490509
 20
1181.630048
 30
0.0
 40
1.0
100
AcDbArc
 50
-31.273298
 51
0.0
  0
LINE
  5
655
100
AcDbEntity
  8
2
  6
CONTINUOUS
 62
     7
100
AcDbLine
 10
1877.490509
 20
1177.325762
 30
0.0
 11
1870.490509
 21
1177.325762
 31
0.0
  0
LINE
  5
656
100
AcDbEntity
  8
2
  6
CONTINUOUS
 62
     7
100
AcDbLine
 10
1873.490509
 20
1199.325762
 30
0.0
 11
1873.490509
 21
1195.325762
 31
0.0
  0
LINE
  5
657
100
AcDbEntity
  8
2
  6
CONTINUOUS
 62
     7
100
AcDbLine
 10
1873.490509
 20
1195.325762
 30
0.0
 11
1881.490509
 21
1195.325762
 31
0.0
  0
LINE
  5
658
100
AcDbEntity
  8
2
  6
CONTINUOUS
 62
     7
100
AcDbLine
 10
1881.490509
 20
1195.325762
 30
0.0
 11
1881.490509
 21
1199.325762
 31
0.0
  0
LINE
  5
659
100
AcDbEntity
  8
2
  6
CONTINUOUS
 62
     7
100
AcDbLine
 10
1881.490509
 20
1199.325762
 30
0.0
 11
1873.490509
 21
1199.325762
 31
0.0
  0
LINE
  5
65A
100
AcDbEntity
  8
2
  6
CONTINUOUS
 62
     7
100
AcDbLine
 10
2074.490509
 20
1166.825762
 30
0.0
 11
2065.490509
 21
1166.825762
 31
0.0
  0
LINE
  5
65B
100
AcDbEntity
  8
2
  6
CONTINUOUS
 62
     7
100
AcDbLine
 10
2063.490509
 20
1168.825762
 30
0.0
 11
2063.490509
 21
1214.325762
 31
0.0
  0
LINE
  5
65C
100
AcDbEntity
  8
2
  6
CONTINUOUS
 62
     7
100
AcDbLine
 10
2059.490509
 20
1196.476162
 30
0.0
 11
2057.490509
 21
1196.476162
 31
0.0
  0
LINE
  5
65D
100
AcDbEntity
  8
2
  6
CONTINUOUS
 62
     7
100
AcDbLine
 10
2057.490509
 20
1196.476162
 30
0.0
 11
2057.490509
 21
1214.325762
 31
0.0
  0
LINE
  5
65E
100
AcDbEntity
  8
2
  6
CONTINUOUS
 62
     7
100
AcDbLine
 10
2057.490509
 20
1198.475362
 30
0.0
 11
2052.490509
 21
1203.475362
 31
0.0
  0
LINE
  5
65F
100
AcDbEntity
  8
2
  6
CONTINUOUS
 62
     7
100
AcDbLine
 10
2052.490509
 20
1214.325762
 30
0.0
 11
2052.490509
 21
1203.475362
 31
0.0
  0
LINE
  5
660
100
AcDbEntity
  8
2
  6
CONTINUOUS
 62
     7
100
AcDbLine
 10
2076.490509
 20
1214.325762
 30
0.0
 11
2076.490509
 21
1168.825762
 31
0.0
  0
ARC
  5
661
100
AcDbEntity
  8
2
  6
CONTINUOUS
 62
     7
100
AcDbCircle
 10
2074.490509
 20
1168.825762
 30
0.0
 40
2.0
100
AcDbArc
 50
-90.0
 51
0.0
  0
ARC
  5
662
100
AcDbEntity
  8
2
  6
CONTINUOUS
 62
     7
100
AcDbCircle
 10
2065.490509
 20
1168.825762
 30
0.0
 40
2.0
100
AcDbArc
 50
180.0
 51
-90.0
  0
ARC
  5
663
100
AcDbEntity
  8
2
  6
CONTINUOUS
 62
     7
100
AcDbCircle
 10
2059.490509
 20
1192.476162
 30
0.0
 40
4.0
100
AcDbArc
 50
0.0
 51
90.0
  0
LINE
  5
664
100
AcDbEntity
  8
2
  6
CONTINUOUS
 62
     7
100
AcDbLine
 10
2059.490509
 20
1232.175362
 30
0.0
 11
2057.490509
 21
1232.175362
 31
0.0
  0
LINE
  5
665
100
AcDbEntity
  8
2
  6
CONTINUOUS
 62
     7
100
AcDbLine
 10
2057.490509
 20
1232.175362
 30
0.0
 11
2057.490509
 21
1214.325762
 31
0.0
  0
LINE
  5
666
100
AcDbEntity
  8
2
  6
CONTINUOUS
 62
     7
100
AcDbLine
 10
2057.490509
 20
1230.175362
 30
0.0
 11
2052.490509
 21
1225.175362
 31
0.0
  0
ARC
  5
667
100
AcDbEntity
  8
2
  6
CONTINUOUS
 62
     7
100
AcDbCircle
 10
2059.490509
 20
1236.175362
 30
0.0
 40
4.0
100
AcDbArc
 50
-90.0
 51
0.0
  0
LINE
  5
668
100
AcDbEntity
  8
2
  6
CONTINUOUS
 62
     7
100
AcDbLine
 10
2074.490509
 20
1261.825762
 30
0.0
 11
2065.490509
 21
1261.825762
 31
0.0
  0
LINE
  5
669
100
AcDbEntity
  8
2
  6
CONTINUOUS
 62
     7
100
AcDbLine
 10
2063.490509
 20
1259.825762
 30
0.0
 11
2063.490509
 21
1214.325762
 31
0.0
  0
LINE
  5
66A
100
AcDbEntity
  8
2
  6
CONTINUOUS
 62
     7
100
AcDbLine
 10
2076.490509
 20
1214.325762
 30
0.0
 11
2076.490509
 21
1259.825762
 31
0.0
  0
ARC
  5
66B
100
AcDbEntity
  8
2
  6
CONTINUOUS
 62
     7
100
AcDbCircle
 10
2074.490509
 20
1259.825762
 30
0.0
 40
2.0
100
AcDbArc
 50
0.0
 51
90.0
  0
ARC
  5
66C
100
AcDbEntity
  8
2
  6
CONTINUOUS
 62
     7
100
AcDbCircle
 10
2065.490509
 20
1259.825762
 30
0.0
 40
2.0
100
AcDbArc
 50
90.0
 51
180.0
  0
LINE
  5
66D
100
AcDbEntity
  8
2
  6
CONTINUOUS
 62
     7
100
AcDbLine
 10
2052.490509
 20
1225.175362
 30
0.0
 11
2052.490509
 21
1214.325762
 31
0.0
  0
LINE
  5
66E
100
AcDbEntity
  8
2
  6
CONTINUOUS
 62
     7
100
AcDbLine
 10
2077.490509
 20
1188.825762
 30
0.0
 11
2076.490509
 21
1188.825762
 31
0.0
  0
LINE
  5
66F
100
AcDbEntity
  8
2
  6
CONTINUOUS
 62
     7
100
AcDbLine
 10
2077.490509
 20
1239.825762
 30
0.0
 11
2076.490509
 21
1239.825762
 31
0.0
  0
LINE
  5
670
100
AcDbEntity
  8
2
  6
CONTINUOUS
 62
     7
100
AcDbLine
 10
2077.490509
 20
1188.825762
 30
0.0
 11
2077.490509
 21
1214.325762
 31
0.0
  0
LINE
  5
671
100
AcDbEntity
  8
2
  6
CONTINUOUS
 62
     7
100
AcDbLine
 10
2077.490509
 20
1239.825762
 30
0.0
 11
2077.490509
 21
1214.325762
 31
0.0
  0
LINE
  5
672
100
AcDbEntity
  8
2
  6
CONTINUOUS
 62
     7
100
AcDbLine
 10
1479.511331
 20
1198.325762
 30
0.0
 11
1479.511331
 21
1195.325762
 31
0.0
  0
LINE
  5
673
100
AcDbEntity
  8
2
  6
CONTINUOUS
 62
     7
100
AcDbLine
 10
1475.470009
 20
1198.325762
 30
0.0
 11
1475.470009
 21
1195.325762
 31
0.0
  0
LINE
  5
674
100
AcDbEntity
  8
2
  6
CONTINUOUS
 62
     7
100
AcDbLine
 10
1473.490509
 20
1198.325762
 30
0.0
 11
1481.490509
 21
1198.325762
 31
0.0
  0
LINE
  5
675
100
AcDbEntity
  8
2
  6
CONTINUOUS
 62
     7
100
AcDbLine
 10
1477.941852
 20
1199.325762
 30
0.0
 11
1476.998344
 21
1198.325762
 31
0.0
  0
LINE
  5
676
100
AcDbEntity
  8
2
  6
CONTINUOUS
 62
     7
100
AcDbLine
 10
1470.490509
 20
1201.325762
 30
0.0
 11
1470.490509
 21
1199.325762
 31
0.0
  0
LINE
  5
677
100
AcDbEntity
  8
2
  6
CONTINUOUS
 62
     7
100
AcDbLine
 10
1470.490509
 20
1199.325762
 30
0.0
 11
1484.490509
 21
1199.325762
 31
0.0
  0
LINE
  5
678
100
AcDbEntity
  8
2
  6
CONTINUOUS
 62
     7
100
AcDbLine
 10
1484.490509
 20
1199.325762
 30
0.0
 11
1484.490509
 21
1201.325762
 31
0.0
  0
LINE
  5
679
100
AcDbEntity
  8
2
  6
CONTINUOUS
 62
     7
100
AcDbLine
 10
1470.490509
 20
1201.325762
 30
0.0
 11
1479.490509
 21
1201.325762
 31
0.0
  0
LINE
  5
67A
100
AcDbEntity
  8
2
  6
CONTINUOUS
 62
     7
100
AcDbLine
 10
1479.490509
 20
1201.325762
 30
0.0
 11
1479.490509
 21
1202.799013
 31
0.0
  0
LINE
  5
67B
100
AcDbEntity
  8
2
  6
CONTINUOUS
 62
     7
100
AcDbLine
 10
1479.490509
 20
1202.799013
 30
0.0
 11
1484.490509
 21
1202.799013
 31
0.0
  0
LINE
  5
67C
100
AcDbEntity
  8
2
  6
CONTINUOUS
 62
     7
100
AcDbLine
 10
1484.490509
 20
1202.799013
 30
0.0
 11
1484.490509
 21
1201.325762
 31
0.0
  0
LINE
  5
67D
100
AcDbEntity
  8
2
  6
CONTINUOUS
 62
     7
100
AcDbLine
 10
1479.490509
 20
1201.325762
 30
0.0
 11
1479.490509
 21
1199.325762
 31
0.0
  0
LINE
  5
67E
100
AcDbEntity
  8
2
  6
CONTINUOUS
 62
     7
100
AcDbLine
 10
1467.490509
 20
1203.475762
 30
0.0
 11
1467.490509
 21
1201.825762
 31
0.0
  0
LINE
  5
67F
100
AcDbEntity
  8
2
  6
CONTINUOUS
 62
     7
100
AcDbLine
 10
1467.490509
 20
1201.825762
 30
0.0
 11
1479.490509
 21
1201.825762
 31
0.0
  0
LINE
  5
680
100
AcDbEntity
  8
2
  6
CONTINUOUS
 62
     7
100
AcDbLine
 10
1487.490509
 20
1203.475762
 30
0.0
 11
1487.490509
 21
1201.825762
 31
0.0
  0
LINE
  5
681
100
AcDbEntity
  8
2
  6
CONTINUOUS
 62
     7
100
AcDbLine
 10
1487.490509
 20
1201.825762
 30
0.0
 11
1484.490509
 21
1201.825762
 31
0.0
  0
LINE
  5
682
100
AcDbEntity
  8
2
  6
CONTINUOUS
 62
     7
100
AcDbLine
 10
1471.903404
 20
1201.825762
 30
0.0
 11
1471.903404
 21
1201.325762
 31
0.0
  0
LINE
  5
683
100
AcDbEntity
  8
2
  6
CONTINUOUS
 62
     7
100
AcDbLine
 10
1484.490509
 20
1199.325762
 30
0.0
 11
1484.490509
 21
1194.639376
 31
0.0
  0
ARC
  5
684
100
AcDbEntity
  8
2
  6
CONTINUOUS
 62
     7
100
AcDbCircle
 10
1483.490509
 20
1194.639376
 30
0.0
 40
1.0
100
AcDbArc
 50
-90.0
 51
0.0
  0
LINE
  5
685
100
AcDbEntity
  8
2
  6
CONTINUOUS
 62
     7
100
AcDbLine
 10
1470.490509
 20
1199.325762
 30
0.0
 11
1470.490509
 21
1194.639376
 31
0.0
  0
LINE
  5
686
100
AcDbEntity
  8
2
  6
CONTINUOUS
 62
     7
100
AcDbLine
 10
1471.490509
 20
1193.639376
 30
0.0
 11
1483.490509
 21
1193.639376
 31
0.0
  0
ARC
  5
687
100
AcDbEntity
  8
2
  6
CONTINUOUS
 62
     7
100
AcDbCircle
 10
1471.490509
 20
1194.639376
 30
0.0
 40
1.0
100
AcDbArc
 50
180.0
 51
-90.0
  0
ARC
  5
688
100
AcDbEntity
  8
2
  6
CONTINUOUS
 62
     7
100
AcDbCircle
 10
1475.635033
 20
1192.052169
 30
0.0
 40
9.939362
100
AcDbArc
 50
7.449198
 51
27.007116
  0
ARC
  5
689
100
AcDbEntity
  8
2
  6
CONTINUOUS
 62
     7
100
AcDbCircle
 10
1479.345985
 20
1192.052169
 30
0.0
 40
9.939362
100
AcDbArc
 50
152.992884
 51
172.550802
  0
LINE
  5
68A
100
AcDbEntity
  8
2
  6
CONTINUOUS
 62
     7
100
AcDbLine
 10
1485.490509
 20
1193.340778
 30
0.0
 11
1485.490509
 21
1181.630048
 31
0.0
  0
ARC
  5
68B
100
AcDbEntity
  8
2
  6
CONTINUOUS
 62
     7
100
AcDbCircle
 10
1483.365509
 20
1179.732012
 30
0.0
 40
2.65625
100
AcDbArc
 50
-64.942384
 51
31.273298
  0
ARC
  5
68C
100
AcDbEntity
  8
2
  6
CONTINUOUS
 62
     7
100
AcDbCircle
 10
1486.490509
 20
1181.630048
 30
0.0
 40
1.0
100
AcDbArc
 50
180.0
 51
-148.726702
  0
LINE
  5
68D
100
AcDbEntity
  8
2
  6
CONTINUOUS
 62
     7
100
AcDbLine
 10
1477.490509
 20
1177.325762
 30
0.0
 11
1484.490509
 21
1177.325762
 31
0.0
  0
LINE
  5
68E
100
AcDbEntity
  8
2
  6
CONTINUOUS
 62
     7
100
AcDbLine
 10
1469.490509
 20
1193.340778
 30
0.0
 11
1469.490509
 21
1181.630048
 31
0.0
  0
ARC
  5
68F
100
AcDbEntity
  8
2
  6
CONTINUOUS
 62
     7
100
AcDbCircle
 10
1471.615509
 20
1179.732012
 30
0.0
 40
2.65625
100
AcDbArc
 50
148.726702
 51
-115.057616
  0
ARC
  5
690
100
AcDbEntity
  8
2
  6
CONTINUOUS
 62
     7
100
AcDbCircle
 10
1468.490509
 20
1181.630048
 30
0.0
 40
1.0
100
AcDbArc
 50
-31.273298
 51
0.0
  0
LINE
  5
691
100
AcDbEntity
  8
2
  6
CONTINUOUS
 62
     7
100
AcDbLine
 10
1477.490509
 20
1177.325762
 30
0.0
 11
1470.490509
 21
1177.325762
 31
0.0
  0
LINE
  5
692
100
AcDbEntity
  8
2
  6
CONTINUOUS
 62
     7
100
AcDbLine
 10
1473.490509
 20
1199.325762
 30
0.0
 11
1473.490509
 21
1195.325762
 31
0.0
  0
LINE
  5
693
100
AcDbEntity
  8
2
  6
CONTINUOUS
 62
     7
100
AcDbLine
 10
1473.490509
 20
1195.325762
 30
0.0
 11
1481.490509
 21
1195.325762
 31
0.0
  0
LINE
  5
694
100
AcDbEntity
  8
2
  6
CONTINUOUS
 62
     7
100
AcDbLine
 10
1481.490509
 20
1195.325762
 30
0.0
 11
1481.490509
 21
1199.325762
 31
0.0
  0
LINE
  5
695
100
AcDbEntity
  8
2
  6
CONTINUOUS
 62
     7
100
AcDbLine
 10
1481.490509
 20
1199.325762
 30
0.0
 11
1473.490509
 21
1199.325762
 31
0.0
  0
CIRCLE
  5
696
100
AcDbEntity
  8
2
  6
CONTINUOUS
 62
     7
100
AcDbCircle
 10
1677.490509
 20
1214.325762
 30
0.0
 40
9.0
  0
CIRCLE
  5
697
100
AcDbEntity
  8
2
  6
CONTINUOUS
 62
     7
100
AcDbCircle
 10
1677.490509
 20
1214.325762
 30
0.0
 40
6.68
  0
LINE
  5
698
100
AcDbEntity
  8
2
  6
CONTINUOUS
 62
     7
100
AcDbLine
 10
1681.990509
 20
1218.825762
 30
0.0
 11
1681.990509
 21
1209.825762
 31
0.0
  0
LINE
  5
699
100
AcDbEntity
  8
2
  6
CONTINUOUS
 62
     7
100
AcDbLine
 10
1681.990509
 20
1209.825762
 30
0.0
 11
1672.990509
 21
1209.825762
 31
0.0
  0
LINE
  5
69A
100
AcDbEntity
  8
2
  6
CONTINUOUS
 62
     7
100
AcDbLine
 10
1672.990509
 20
1209.825762
 30
0.0
 11
1672.990509
 21
1218.825762
 31
0.0
  0
LINE
  5
69B
100
AcDbEntity
  8
2
  6
CONTINUOUS
 62
     7
100
AcDbLine
 10
1672.990509
 20
1218.825762
 30
0.0
 11
1681.990509
 21
1218.825762
 31
0.0
  0
LINE
  5
69C
100
AcDbEntity
  8
2
  6
CONTINUOUS
 62
     7
100
AcDbLine
 10
102.489709
 20
1225.176162
 30
0.0
 11
102.489709
 21
1203.475362
 31
0.0
  0
LINE
  5
69D
100
AcDbEntity
  8
2
  6
CONTINUOUS
 62
     7
100
AcDbLine
 10
77.490509
 20
1239.825762
 30
0.0
 11
77.490509
 21
1188.825762
 31
0.0
  0
LINE
  5
69E
100
AcDbEntity
  8
2
  6
CONTINUOUS
 62
     7
100
AcDbLine
 10
77.490509
 20
1188.825762
 30
0.0
 11
78.490509
 21
1188.825762
 31
0.0
  0
LINE
  5
69F
100
AcDbEntity
  8
2
  6
CONTINUOUS
 62
     7
100
AcDbLine
 10
80.490509
 20
1166.825762
 30
0.0
 11
89.490509
 21
1166.825762
 31
0.0
  0
LINE
  5
6A0
100
AcDbEntity
  8
2
  6
CONTINUOUS
 62
     7
100
AcDbLine
 10
91.490509
 20
1168.825762
 30
0.0
 11
91.490509
 21
1214.325762
 31
0.0
  0
LINE
  5
6A1
100
AcDbEntity
  8
2
  6
CONTINUOUS
 62
     7
100
AcDbLine
 10
95.490509
 20
1196.476162
 30
0.0
 11
97.490509
 21
1196.476162
 31
0.0
  0
LINE
  5
6A2
100
AcDbEntity
  8
2
  6
CONTINUOUS
 62
     7
100
AcDbLine
 10
97.490509
 20
1196.476162
 30
0.0
 11
97.490509
 21
1214.325762
 31
0.0
  0
LINE
  5
6A3
100
AcDbEntity
  8
2
  6
CONTINUOUS
 62
     7
100
AcDbLine
 10
97.490509
 20
1198.475362
 30
0.0
 11
102.490509
 21
1203.475362
 31
0.0
  0
LINE
  5
6A4
100
AcDbEntity
  8
2
  6
CONTINUOUS
 62
     7
100
AcDbLine
 10
78.490509
 20
1214.325762
 30
0.0
 11
78.490509
 21
1168.825762
 31
0.0
  0
ARC
  5
6A5
100
AcDbEntity
  8
2
  6
CONTINUOUS
 62
     7
100
AcDbCircle
 10
80.490509
 20
1168.825762
 30
0.0
 40
2.0
100
AcDbArc
 50
180.0
 51
-90.0
  0
ARC
  5
6A6
100
AcDbEntity
  8
2
  6
CONTINUOUS
 62
     7
100
AcDbCircle
 10
89.490509
 20
1168.825762
 30
0.0
 40
2.0
100
AcDbArc
 50
-90.0
 51
0.0
  0
ARC
  5
6A7
100
AcDbEntity
  8
2
  6
CONTINUOUS
 62
     7
100
AcDbCircle
 10
95.490509
 20
1192.476162
 30
0.0
 40
4.0
100
AcDbArc
 50
90.0
 51
180.0
  0
LINE
  5
6A8
100
AcDbEntity
  8
2
  6
CONTINUOUS
 62
     7
100
AcDbLine
 10
77.490509
 20
1239.825762
 30
0.0
 11
78.490509
 21
1239.825762
 31
0.0
  0
ARC
  5
6A9
100
AcDbEntity
  8
2
  6
CONTINUOUS
 62
     7
100
AcDbCircle
 10
80.490509
 20
1259.825762
 30
0.0
 40
2.0
100
AcDbArc
 50
90.0
 51
180.0
  0
LINE
  5
6AA
100
AcDbEntity
  8
2
  6
CONTINUOUS
 62
     7
100
AcDbLine
 10
80.490509
 20
1261.825762
 30
0.0
 11
89.490509
 21
1261.825762
 31
0.0
  0
LINE
  5
6AB
100
AcDbEntity
  8
2
  6
CONTINUOUS
 62
     7
100
AcDbLine
 10
91.490509
 20
1259.825762
 30
0.0
 11
91.490509
 21
1214.325762
 31
0.0
  0
LINE
  5
6AC
100
AcDbEntity
  8
2
  6
CONTINUOUS
 62
     7
100
AcDbLine
 10
95.490509
 20
1232.175362
 30
0.0
 11
97.490509
 21
1232.175362
 31
0.0
  0
LINE
  5
6AD
100
AcDbEntity
  8
2
  6
CONTINUOUS
 62
     7
100
AcDbLine
 10
97.490509
 20
1232.175362
 30
0.0
 11
97.490509
 21
1214.325762
 31
0.0
  0
LINE
  5
6AE
100
AcDbEntity
  8
2
  6
CONTINUOUS
 62
     7
100
AcDbLine
 10
97.490509
 20
1230.175362
 30
0.0
 11
102.490509
 21
1225.175362
 31
0.0
  0
ARC
  5
6AF
100
AcDbEntity
  8
2
  6
CONTINUOUS
 62
     7
100
AcDbCircle
 10
80.490509
 20
1259.825762
 30
0.0
 40
2.0
100
AcDbArc
 50
90.0
 51
180.0
  0
ARC
  5
6B0
100
AcDbEntity
  8
2
  6
CONTINUOUS
 62
     7
100
AcDbCircle
 10
89.490509
 20
1259.825762
 30
0.0
 40
2.0
100
AcDbArc
 50
0.0
 51
90.0
  0
ARC
  5
6B1
100
AcDbEntity
  8
2
  6
CONTINUOUS
 62
     7
100
AcDbCircle
 10
95.490509
 20
1236.175362
 30
0.0
 40
4.0
100
AcDbArc
 50
180.0
 51
-90.0
  0
LINE
  5
6B2
100
AcDbEntity
  8
2
  6
CONTINUOUS
 62
     7
100
AcDbLine
 10
78.490509
 20
1259.825762
 30
0.0
 11
78.490509
 21
1214.325762
 31
0.0
  0
LINE
  5
6B3
100
AcDbEntity
  8
2
  6
CONTINUOUS
 62
     7
100
AcDbLine
 10
1079.511331
 20
1198.325762
 30
0.0
 11
1079.511331
 21
1195.325762
 31
0.0
  0
LINE
  5
6B4
100
AcDbEntity
  8
2
  6
CONTINUOUS
 62
     7
100
AcDbLine
 10
1075.470009
 20
1198.325762
 30
0.0
 11
1075.470009
 21
1195.325762
 31
0.0
  0
LINE
  5
6B5
100
AcDbEntity
  8
2
  6
CONTINUOUS
 62
     7
100
AcDbLine
 10
1073.490509
 20
1198.325762
 30
0.0
 11
1081.490509
 21
1198.325762
 31
0.0
  0
LINE
  5
6B6
100
AcDbEntity
  8
2
  6
CONTINUOUS
 62
     7
100
AcDbLine
 10
1077.941852
 20
1199.325762
 30
0.0
 11
1076.998344
 21
1198.325762
 31
0.0
  0
LINE
  5
6B7
100
AcDbEntity
  8
2
  6
CONTINUOUS
 62
     7
100
AcDbLine
 10
1070.490509
 20
1201.325762
 30
0.0
 11
1070.490509
 21
1199.325762
 31
0.0
  0
LINE
  5
6B8
100
AcDbEntity
  8
2
  6
CONTINUOUS
 62
     7
100
AcDbLine
 10
1070.490509
 20
1199.325762
 30
0.0
 11
1084.490509
 21
1199.325762
 31
0.0
  0
LINE
  5
6B9
100
AcDbEntity
  8
2
  6
CONTINUOUS
 62
     7
100
AcDbLine
 10
1084.490509
 20
1199.325762
 30
0.0
 11
1084.490509
 21
1201.325762
 31
0.0
  0
LINE
  5
6BA
100
AcDbEntity
  8
2
  6
CONTINUOUS
 62
     7
100
AcDbLine
 10
1070.490509
 20
1201.325762
 30
0.0
 11
1079.490509
 21
1201.325762
 31
0.0
  0
LINE
  5
6BB
100
AcDbEntity
  8
2
  6
CONTINUOUS
 62
     7
100
AcDbLine
 10
1079.490509
 20
1201.325762
 30
0.0
 11
1079.490509
 21
1202.799013
 31
0.0
  0
LINE
  5
6BC
100
AcDbEntity
  8
2
  6
CONTINUOUS
 62
     7
100
AcDbLine
 10
1079.490509
 20
1202.799013
 30
0.0
 11
1084.490509
 21
1202.799013
 31
0.0
  0
LINE
  5
6BD
100
AcDbEntity
  8
2
  6
CONTINUOUS
 62
     7
100
AcDbLine
 10
1084.490509
 20
1202.799013
 30
0.0
 11
1084.490509
 21
1201.325762
 31
0.0
  0
LINE
  5
6BE
100
AcDbEntity
  8
2
  6
CONTINUOUS
 62
     7
100
AcDbLine
 10
1079.490509
 20
1201.325762
 30
0.0
 11
1079.490509
 21
1199.325762
 31
0.0
  0
LINE
  5
6BF
100
AcDbEntity
  8
2
  6
CONTINUOUS
 62
     7
100
AcDbLine
 10
1067.490509
 20
1203.475762
 30
0.0
 11
1067.490509
 21
1201.825762
 31
0.0
  0
LINE
  5
6C0
100
AcDbEntity
  8
2
  6
CONTINUOUS
 62
     7
100
AcDbLine
 10
1067.490509
 20
1201.825762
 30
0.0
 11
1079.490509
 21
1201.825762
 31
0.0
  0
LINE
  5
6C1
100
AcDbEntity
  8
2
  6
CONTINUOUS
 62
     7
100
AcDbLine
 10
1087.490509
 20
1203.475762
 30
0.0
 11
1087.490509
 21
1201.825762
 31
0.0
  0
LINE
  5
6C2
100
AcDbEntity
  8
2
  6
CONTINUOUS
 62
     7
100
AcDbLine
 10
1087.490509
 20
1201.825762
 30
0.0
 11
1084.490509
 21
1201.825762
 31
0.0
  0
LINE
  5
6C3
100
AcDbEntity
  8
2
  6
CONTINUOUS
 62
     7
100
AcDbLine
 10
1071.903404
 20
1201.825762
 30
0.0
 11
1071.903404
 21
1201.325762
 31
0.0
  0
LINE
  5
6C4
100
AcDbEntity
  8
2
  6
CONTINUOUS
 62
     7
100
AcDbLine
 10
1084.490509
 20
1199.325762
 30
0.0
 11
1084.490509
 21
1194.639376
 31
0.0
  0
ARC
  5
6C5
100
AcDbEntity
  8
2
  6
CONTINUOUS
 62
     7
100
AcDbCircle
 10
1083.490509
 20
1194.639376
 30
0.0
 40
1.0
100
AcDbArc
 50
-90.0
 51
0.0
  0
LINE
  5
6C6
100
AcDbEntity
  8
2
  6
CONTINUOUS
 62
     7
100
AcDbLine
 10
1070.490509
 20
1199.325762
 30
0.0
 11
1070.490509
 21
1194.639376
 31
0.0
  0
LINE
  5
6C7
100
AcDbEntity
  8
2
  6
CONTINUOUS
 62
     7
100
AcDbLine
 10
1071.490509
 20
1193.639376
 30
0.0
 11
1083.490509
 21
1193.639376
 31
0.0
  0
ARC
  5
6C8
100
AcDbEntity
  8
2
  6
CONTINUOUS
 62
     7
100
AcDbCircle
 10
1071.490509
 20
1194.639376
 30
0.0
 40
1.0
100
AcDbArc
 50
180.0
 51
-90.0
  0
ARC
  5
6C9
100
AcDbEntity
  8
2
  6
CONTINUOUS
 62
     7
100
AcDbCircle
 10
1075.635033
 20
1192.052169
 30
0.0
 40
9.939362
100
AcDbArc
 50
7.449198
 51
27.007116
  0
ARC
  5
6CA
100
AcDbEntity
  8
2
  6
CONTINUOUS
 62
     7
100
AcDbCircle
 10
1079.345985
 20
1192.052169
 30
0.0
 40
9.939362
100
AcDbArc
 50
152.992884
 51
172.550802
  0
LINE
  5
6CB
100
AcDbEntity
  8
2
  6
CONTINUOUS
 62
     7
100
AcDbLine
 10
1085.490509
 20
1193.340778
 30
0.0
 11
1085.490509
 21
1181.630048
 31
0.0
  0
ARC
  5
6CC
100
AcDbEntity
  8
2
  6
CONTINUOUS
 62
     7
100
AcDbCircle
 10
1083.365509
 20
1179.732012
 30
0.0
 40
2.65625
100
AcDbArc
 50
-64.942384
 51
31.273298
  0
ARC
  5
6CD
100
AcDbEntity
  8
2
  6
CONTINUOUS
 62
     7
100
AcDbCircle
 10
1086.490509
 20
1181.630048
 30
0.0
 40
1.0
100
AcDbArc
 50
180.0
 51
-148.726702
  0
LINE
  5
6CE
100
AcDbEntity
  8
2
  6
CONTINUOUS
 62
     7
100
AcDbLine
 10
1077.490509
 20
1177.325762
 30
0.0
 11
1084.490509
 21
1177.325762
 31
0.0
  0
LINE
  5
6CF
100
AcDbEntity
  8
2
  6
CONTINUOUS
 62
     7
100
AcDbLine
 10
1069.490509
 20
1193.340778
 30
0.0
 11
1069.490509
 21
1181.630048
 31
0.0
  0
ARC
  5
6D0
100
AcDbEntity
  8
2
  6
CONTINUOUS
 62
     7
100
AcDbCircle
 10
1071.615509
 20
1179.732012
 30
0.0
 40
2.65625
100
AcDbArc
 50
148.726702
 51
-115.057616
  0
ARC
  5
6D1
100
AcDbEntity
  8
2
  6
CONTINUOUS
 62
     7
100
AcDbCircle
 10
1068.490509
 20
1181.630048
 30
0.0
 40
1.0
100
AcDbArc
 50
-31.273298
 51
0.0
  0
LINE
  5
6D2
100
AcDbEntity
  8
2
  6
CONTINUOUS
 62
     7
100
AcDbLine
 10
1077.490509
 20
1177.325762
 30
0.0
 11
1070.490509
 21
1177.325762
 31
0.0
  0
LINE
  5
6D3
100
AcDbEntity
  8
2
  6
CONTINUOUS
 62
     7
100
AcDbLine
 10
1073.490509
 20
1199.325762
 30
0.0
 11
1073.490509
 21
1195.325762
 31
0.0
  0
LINE
  5
6D4
100
AcDbEntity
  8
2
  6
CONTINUOUS
 62
     7
100
AcDbLine
 10
1073.490509
 20
1195.325762
 30
0.0
 11
1081.490509
 21
1195.325762
 31
0.0
  0
LINE
  5
6D5
100
AcDbEntity
  8
2
  6
CONTINUOUS
 62
     7
100
AcDbLine
 10
1081.490509
 20
1195.325762
 30
0.0
 11
1081.490509
 21
1199.325762
 31
0.0
  0
LINE
  5
6D6
100
AcDbEntity
  8
2
  6
CONTINUOUS
 62
     7
100
AcDbLine
 10
1081.490509
 20
1199.325762
 30
0.0
 11
1073.490509
 21
1199.325762
 31
0.0
  0
LINE
  5
6D7
100
AcDbEntity
  8
2
  6
CONTINUOUS
 62
     7
100
AcDbLine
 10
679.511331
 20
1198.325762
 30
0.0
 11
679.511331
 21
1195.325762
 31
0.0
  0
LINE
  5
6D8
100
AcDbEntity
  8
2
  6
CONTINUOUS
 62
     7
100
AcDbLine
 10
675.470009
 20
1198.325762
 30
0.0
 11
675.470009
 21
1195.325762
 31
0.0
  0
LINE
  5
6D9
100
AcDbEntity
  8
2
  6
CONTINUOUS
 62
     7
100
AcDbLine
 10
673.490509
 20
1198.325762
 30
0.0
 11
681.490509
 21
1198.325762
 31
0.0
  0
LINE
  5
6DA
100
AcDbEntity
  8
2
  6
CONTINUOUS
 62
     7
100
AcDbLine
 10
677.941852
 20
1199.325762
 30
0.0
 11
676.998344
 21
1198.325762
 31
0.0
  0
LINE
  5
6DB
100
AcDbEntity
  8
2
  6
CONTINUOUS
 62
     7
100
AcDbLine
 10
670.490509
 20
1201.325762
 30
0.0
 11
670.490509
 21
1199.325762
 31
0.0
  0
LINE
  5
6DC
100
AcDbEntity
  8
2
  6
CONTINUOUS
 62
     7
100
AcDbLine
 10
670.490509
 20
1199.325762
 30
0.0
 11
684.490509
 21
1199.325762
 31
0.0
  0
LINE
  5
6DD
100
AcDbEntity
  8
2
  6
CONTINUOUS
 62
     7
100
AcDbLine
 10
684.490509
 20
1199.325762
 30
0.0
 11
684.490509
 21
1201.325762
 31
0.0
  0
LINE
  5
6DE
100
AcDbEntity
  8
2
  6
CONTINUOUS
 62
     7
100
AcDbLine
 10
670.490509
 20
1201.325762
 30
0.0
 11
679.490509
 21
1201.325762
 31
0.0
  0
LINE
  5
6DF
100
AcDbEntity
  8
2
  6
CONTINUOUS
 62
     7
100
AcDbLine
 10
679.490509
 20
1201.325762
 30
0.0
 11
679.490509
 21
1202.799013
 31
0.0
  0
LINE
  5
6E0
100
AcDbEntity
  8
2
  6
CONTINUOUS
 62
     7
100
AcDbLine
 10
679.490509
 20
1202.799013
 30
0.0
 11
684.490509
 21
1202.799013
 31
0.0
  0
LINE
  5
6E1
100
AcDbEntity
  8
2
  6
CONTINUOUS
 62
     7
100
AcDbLine
 10
684.490509
 20
1202.799013
 30
0.0
 11
684.490509
 21
1201.325762
 31
0.0
  0
LINE
  5
6E2
100
AcDbEntity
  8
2
  6
CONTINUOUS
 62
     7
100
AcDbLine
 10
679.490509
 20
1201.325762
 30
0.0
 11
679.490509
 21
1199.325762
 31
0.0
  0
LINE
  5
6E3
100
AcDbEntity
  8
2
  6
CONTINUOUS
 62
     7
100
AcDbLine
 10
667.490509
 20
1203.475762
 30
0.0
 11
667.490509
 21
1201.825762
 31
0.0
  0
LINE
  5
6E4
100
AcDbEntity
  8
2
  6
CONTINUOUS
 62
     7
100
AcDbLine
 10
667.490509
 20
1201.825762
 30
0.0
 11
679.490509
 21
1201.825762
 31
0.0
  0
LINE
  5
6E5
100
AcDbEntity
  8
2
  6
CONTINUOUS
 62
     7
100
AcDbLine
 10
687.490509
 20
1203.475762
 30
0.0
 11
687.490509
 21
1201.825762
 31
0.0
  0
LINE
  5
6E6
100
AcDbEntity
  8
2
  6
CONTINUOUS
 62
     7
100
AcDbLine
 10
687.490509
 20
1201.825762
 30
0.0
 11
684.490509
 21
1201.825762
 31
0.0
  0
LINE
  5
6E7
100
AcDbEntity
  8
2
  6
CONTINUOUS
 62
     7
100
AcDbLine
 10
671.903404
 20
1201.825762
 30
0.0
 11
671.903404
 21
1201.325762
 31
0.0
  0
LINE
  5
6E8
100
AcDbEntity
  8
2
  6
CONTINUOUS
 62
     7
100
AcDbLine
 10
684.490509
 20
1199.325762
 30
0.0
 11
684.490509
 21
1194.639376
 31
0.0
  0
ARC
  5
6E9
100
AcDbEntity
  8
2
  6
CONTINUOUS
 62
     7
100
AcDbCircle
 10
683.490509
 20
1194.639376
 30
0.0
 40
1.0
100
AcDbArc
 50
-90.0
 51
0.0
  0
LINE
  5
6EA
100
AcDbEntity
  8
2
  6
CONTINUOUS
 62
     7
100
AcDbLine
 10
670.490509
 20
1199.325762
 30
0.0
 11
670.490509
 21
1194.639376
 31
0.0
  0
LINE
  5
6EB
100
AcDbEntity
  8
2
  6
CONTINUOUS
 62
     7
100
AcDbLine
 10
671.490509
 20
1193.639376
 30
0.0
 11
683.490509
 21
1193.639376
 31
0.0
  0
ARC
  5
6EC
100
AcDbEntity
  8
2
  6
CONTINUOUS
 62
     7
100
AcDbCircle
 10
671.490509
 20
1194.639376
 30
0.0
 40
1.0
100
AcDbArc
 50
180.0
 51
-90.0
  0
ARC
  5
6ED
100
AcDbEntity
  8
2
  6
CONTINUOUS
 62
     7
100
AcDbCircle
 10
675.635033
 20
1192.052169
 30
0.0
 40
9.939362
100
AcDbArc
 50
7.449198
 51
27.007116
  0
ARC
  5
6EE
100
AcDbEntity
  8
2
  6
CONTINUOUS
 62
     7
100
AcDbCircle
 10
679.345985
 20
1192.052169
 30
0.0
 40
9.939362
100
AcDbArc
 50
152.992884
 51
172.550802
  0
LINE
  5
6EF
100
AcDbEntity
  8
2
  6
CONTINUOUS
 62
     7
100
AcDbLine
 10
685.490509
 20
1193.340778
 30
0.0
 11
685.490509
 21
1181.630048
 31
0.0
  0
ARC
  5
6F0
100
AcDbEntity
  8
2
  6
CONTINUOUS
 62
     7
100
AcDbCircle
 10
683.365509
 20
1179.732012
 30
0.0
 40
2.65625
100
AcDbArc
 50
-64.942384
 51
31.273298
  0
ARC
  5
6F1
100
AcDbEntity
  8
2
  6
CONTINUOUS
 62
     7
100
AcDbCircle
 10
686.490509
 20
1181.630048
 30
0.0
 40
1.0
100
AcDbArc
 50
180.0
 51
-148.726702
  0
LINE
  5
6F2
100
AcDbEntity
  8
2
  6
CONTINUOUS
 62
     7
100
AcDbLine
 10
677.490509
 20
1177.325762
 30
0.0
 11
684.490509
 21
1177.325762
 31
0.0
  0
LINE
  5
6F3
100
AcDbEntity
  8
2
  6
CONTINUOUS
 62
     7
100
AcDbLine
 10
669.490509
 20
1193.340778
 30
0.0
 11
669.490509
 21
1181.630048
 31
0.0
  0
ARC
  5
6F4
100
AcDbEntity
  8
2
  6
CONTINUOUS
 62
     7
100
AcDbCircle
 10
671.615509
 20
1179.732012
 30
0.0
 40
2.65625
100
AcDbArc
 50
148.726702
 51
-115.057616
  0
ARC
  5
6F5
100
AcDbEntity
  8
2
  6
CONTINUOUS
 62
     7
100
AcDbCircle
 10
668.490509
 20
1181.630048
 30
0.0
 40
1.0
100
AcDbArc
 50
-31.273298
 51
0.0
  0
LINE
  5
6F6
100
AcDbEntity
  8
2
  6
CONTINUOUS
 62
     7
100
AcDbLine
 10
677.490509
 20
1177.325762
 30
0.0
 11
670.490509
 21
1177.325762
 31
0.0
  0
LINE
  5
6F7
100
AcDbEntity
  8
2
  6
CONTINUOUS
 62
     7
100
AcDbLine
 10
673.490509
 20
1199.325762
 30
0.0
 11
673.490509
 21
1195.325762
 31
0.0
  0
LINE
  5
6F8
100
AcDbEntity
  8
2
  6
CONTINUOUS
 62
     7
100
AcDbLine
 10
673.490509
 20
1195.325762
 30
0.0
 11
681.490509
 21
1195.325762
 31
0.0
  0
LINE
  5
6F9
100
AcDbEntity
  8
2
  6
CONTINUOUS
 62
     7
100
AcDbLine
 10
681.490509
 20
1195.325762
 30
0.0
 11
681.490509
 21
1199.325762
 31
0.0
  0
LINE
  5
6FA
100
AcDbEntity
  8
2
  6
CONTINUOUS
 62
     7
100
AcDbLine
 10
681.490509
 20
1199.325762
 30
0.0
 11
673.490509
 21
1199.325762
 31
0.0
  0
LINE
  5
6FB
100
AcDbEntity
  8
2
  6
CONTINUOUS
 62
     7
100
AcDbLine
 10
279.511331
 20
1198.325762
 30
0.0
 11
279.511331
 21
1195.325762
 31
0.0
  0
LINE
  5
6FC
100
AcDbEntity
  8
2
  6
CONTINUOUS
 62
     7
100
AcDbLine
 10
275.470009
 20
1198.325762
 30
0.0
 11
275.470009
 21
1195.325762
 31
0.0
  0
LINE
  5
6FD
100
AcDbEntity
  8
2
  6
CONTINUOUS
 62
     7
100
AcDbLine
 10
273.490509
 20
1198.325762
 30
0.0
 11
281.490509
 21
1198.325762
 31
0.0
  0
LINE
  5
6FE
100
AcDbEntity
  8
2
  6
CONTINUOUS
 62
     7
100
AcDbLine
 10
277.941852
 20
1199.325762
 30
0.0
 11
276.998344
 21
1198.325762
 31
0.0
  0
LINE
  5
6FF
100
AcDbEntity
  8
2
  6
CONTINUOUS
 62
     7
100
AcDbLine
 10
270.490509
 20
1201.325762
 30
0.0
 11
270.490509
 21
1199.325762
 31
0.0
  0
LINE
  5
700
100
AcDbEntity
  8
2
  6
CONTINUOUS
 62
     7
100
AcDbLine
 10
270.490509
 20
1199.325762
 30
0.0
 11
284.490509
 21
1199.325762
 31
0.0
  0
LINE
  5
701
100
AcDbEntity
  8
2
  6
CONTINUOUS
 62
     7
100
AcDbLine
 10
284.490509
 20
1199.325762
 30
0.0
 11
284.490509
 21
1201.325762
 31
0.0
  0
LINE
  5
702
100
AcDbEntity
  8
2
  6
CONTINUOUS
 62
     7
100
AcDbLine
 10
270.490509
 20
1201.325762
 30
0.0
 11
279.490509
 21
1201.325762
 31
0.0
  0
LINE
  5
703
100
AcDbEntity
  8
2
  6
CONTINUOUS
 62
     7
100
AcDbLine
 10
279.490509
 20
1201.325762
 30
0.0
 11
279.490509
 21
1202.799013
 31
0.0
  0
LINE
  5
704
100
AcDbEntity
  8
2
  6
CONTINUOUS
 62
     7
100
AcDbLine
 10
279.490509
 20
1202.799013
 30
0.0
 11
284.490509
 21
1202.799013
 31
0.0
  0
LINE
  5
705
100
AcDbEntity
  8
2
  6
CONTINUOUS
 62
     7
100
AcDbLine
 10
284.490509
 20
1202.799013
 30
0.0
 11
284.490509
 21
1201.325762
 31
0.0
  0
LINE
  5
706
100
AcDbEntity
  8
2
  6
CONTINUOUS
 62
     7
100
AcDbLine
 10
279.490509
 20
1201.325762
 30
0.0
 11
279.490509
 21
1199.325762
 31
0.0
  0
LINE
  5
707
100
AcDbEntity
  8
2
  6
CONTINUOUS
 62
     7
100
AcDbLine
 10
267.490509
 20
1203.475762
 30
0.0
 11
267.490509
 21
1201.825762
 31
0.0
  0
LINE
  5
708
100
AcDbEntity
  8
2
  6
CONTINUOUS
 62
     7
100
AcDbLine
 10
267.490509
 20
1201.825762
 30
0.0
 11
279.490509
 21
1201.825762
 31
0.0
  0
LINE
  5
709
100
AcDbEntity
  8
2
  6
CONTINUOUS
 62
     7
100
AcDbLine
 10
287.490509
 20
1203.475762
 30
0.0
 11
287.490509
 21
1201.825762
 31
0.0
  0
LINE
  5
70A
100
AcDbEntity
  8
2
  6
CONTINUOUS
 62
     7
100
AcDbLine
 10
287.490509
 20
1201.825762
 30
0.0
 11
284.490509
 21
1201.825762
 31
0.0
  0
LINE
  5
70B
100
AcDbEntity
  8
2
  6
CONTINUOUS
 62
     7
100
AcDbLine
 10
271.903404
 20
1201.825762
 30
0.0
 11
271.903404
 21
1201.325762
 31
0.0
  0
LINE
  5
70C
100
AcDbEntity
  8
2
  6
CONTINUOUS
 62
     7
100
AcDbLine
 10
284.490509
 20
1199.325762
 30
0.0
 11
284.490509
 21
1194.639376
 31
0.0
  0
ARC
  5
70D
100
AcDbEntity
  8
2
  6
CONTINUOUS
 62
     7
100
AcDbCircle
 10
283.490509
 20
1194.639376
 30
0.0
 40
1.0
100
AcDbArc
 50
-90.0
 51
0.0
  0
LINE
  5
70E
100
AcDbEntity
  8
2
  6
CONTINUOUS
 62
     7
100
AcDbLine
 10
270.490509
 20
1199.325762
 30
0.0
 11
270.490509
 21
1194.639376
 31
0.0
  0
LINE
  5
70F
100
AcDbEntity
  8
2
  6
CONTINUOUS
 62
     7
100
AcDbLine
 10
271.490509
 20
1193.639376
 30
0.0
 11
283.490509
 21
1193.639376
 31
0.0
  0
ARC
  5
710
100
AcDbEntity
  8
2
  6
CONTINUOUS
 62
     7
100
AcDbCircle
 10
271.490509
 20
1194.639376
 30
0.0
 40
1.0
100
AcDbArc
 50
180.0
 51
-90.0
  0
ARC
  5
711
100
AcDbEntity
  8
2
  6
CONTINUOUS
 62
     7
100
AcDbCircle
 10
275.635033
 20
1192.052169
 30
0.0
 40
9.939362
100
AcDbArc
 50
7.449198
 51
27.007116
  0
ARC
  5
712
100
AcDbEntity
  8
2
  6
CONTINUOUS
 62
     7
100
AcDbCircle
 10
279.345985
 20
1192.052169
 30
0.0
 40
9.939362
100
AcDbArc
 50
152.992884
 51
172.550802
  0
LINE
  5
713
100
AcDbEntity
  8
2
  6
CONTINUOUS
 62
     7
100
AcDbLine
 10
285.490509
 20
1193.340778
 30
0.0
 11
285.490509
 21
1181.630048
 31
0.0
  0
ARC
  5
714
100
AcDbEntity
  8
2
  6
CONTINUOUS
 62
     7
100
AcDbCircle
 10
283.365509
 20
1179.732012
 30
0.0
 40
2.65625
100
AcDbArc
 50
-64.942384
 51
31.273298
  0
ARC
  5
715
100
AcDbEntity
  8
2
  6
CONTINUOUS
 62
     7
100
AcDbCircle
 10
286.490509
 20
1181.630048
 30
0.0
 40
1.0
100
AcDbArc
 50
180.0
 51
-148.726702
  0
LINE
  5
716
100
AcDbEntity
  8
2
  6
CONTINUOUS
 62
     7
100
AcDbLine
 10
277.490509
 20
1177.325762
 30
0.0
 11
284.490509
 21
1177.325762
 31
0.0
  0
LINE
  5
717
100
AcDbEntity
  8
2
  6
CONTINUOUS
 62
     7
100
AcDbLine
 10
269.490509
 20
1193.340778
 30
0.0
 11
269.490509
 21
1181.630048
 31
0.0
  0
ARC
  5
718
100
AcDbEntity
  8
2
  6
CONTINUOUS
 62
     7
100
AcDbCircle
 10
271.615509
 20
1179.732012
 30
0.0
 40
2.65625
100
AcDbArc
 50
148.726702
 51
-115.057616
  0
ARC
  5
719
100
AcDbEntity
  8
2
  6
CONTINUOUS
 62
     7
100
AcDbCircle
 10
268.490509
 20
1181.630048
 30
0.0
 40
1.0
100
AcDbArc
 50
-31.273298
 51
0.0
  0
LINE
  5
71A
100
AcDbEntity
  8
2
  6
CONTINUOUS
 62
     7
100
AcDbLine
 10
277.490509
 20
1177.325762
 30
0.0
 11
270.490509
 21
1177.325762
 31
0.0
  0
LINE
  5
71B
100
AcDbEntity
  8
2
  6
CONTINUOUS
 62
     7
100
AcDbLine
 10
273.490509
 20
1199.325762
 30
0.0
 11
273.490509
 21
1195.325762
 31
0.0
  0
LINE
  5
71C
100
AcDbEntity
  8
2
  6
CONTINUOUS
 62
     7
100
AcDbLine
 10
273.490509
 20
1195.325762
 30
0.0
 11
281.490509
 21
1195.325762
 31
0.0
  0
LINE
  5
71D
100
AcDbEntity
  8
2
  6
CONTINUOUS
 62
     7
100
AcDbLine
 10
281.490509
 20
1195.325762
 30
0.0
 11
281.490509
 21
1199.325762
 31
0.0
  0
LINE
  5
71E
100
AcDbEntity
  8
2
  6
CONTINUOUS
 62
     7
100
AcDbLine
 10
281.490509
 20
1199.325762
 30
0.0
 11
273.490509
 21
1199.325762
 31
0.0
  0
LINE
  5
71F
100
AcDbEntity
  8
2
  6
CONTINUOUS
 62
     7
100
AcDbLine
 10
102.489709
 20
1203.475762
 30
0.0
 11
2052.490509
 21
1203.475762
 31
0.0
  0
LINE
  5
720
100
AcDbEntity
  8
2
  6
CONTINUOUS
 62
     7
100
AcDbLine
 10
102.489709
 20
1225.175762
 30
0.0
 11
2052.490509
 21
1225.175762
 31
0.0
  0
LINE
  5
721
100
AcDbEntity
  8
1
  6
CENTER
 62
     7
100
AcDbLine
 10
2099.603705
 20
1214.325762
 30
0.0
 11
71.430123
 21
1214.325762
 31
0.0
  0
ENDSEC
  0
SECTION
  2
OBJECTS
  0
DICTIONARY
  5
19
100
AcDbDictionary
  3
ACAD_GROUP
350
1A
  3
ACAD_MLINESTYLE
350
1B
  0
DICTIONARY
  5
1A
102
{ACAD_REACTORS
330
19
102
}
100
AcDbDictionary
  0
DICTIONARY
  5
1B
102
{ACAD_REACTORS
330
19
102
}
100
AcDbDictionary
  3
STANDARD
350
1C
  0
MLINESTYLE
  5
1C
102
{ACAD_REACTORS
330
1B
102
}
100
AcDbMlineStyle
  2
STANDARD
 70
     0
  3

 62
     0
 51
90.0
 52
90.0
 71
     2
 49
0.5
 62
   256
  6
BYLAYER
 49
-0.5
 62
   256
  6
BYLAYER
  0
ENDSEC
  0
EOF
